PrimaNota.ru - самый крупный в мире бесплатный архив песенных текстов, аккордов, табулатур и нот


Atomsko Skloniste - Netko Dobar Netko Zao - таба, видео

Регистрация Запомнить меня
Войти через:  Facebook Google Twitter Vk Yandex Mail.ru

Atomsko Skloniste - Netko Dobar Netko Zao - таба, видео

Печатать
Просмотров: 138
-------------------------------------------------------------------------------
                    Netko dobar netko zao - Atomsko Skloniste
-------------------------------------------------------------------------------
Tabbed by: gwyder
Email: mirzamerdovic@gmail.com

Tuning: EADGBE

Verse
e|---------------------------------------------------------------------------|
B|----------------------------------1-----------1----------------------------|
G|----------0-----------0---------0---0-------0---0--------------------------|
D|--------4---4-------4---4-----4-------4---4-------4------------------------|
A|------2-------2---2-------2-3-----------3----------------------------------|
E|----0-----------0----------------------------------------------------------|
 Tu na kraju         autostrade               Prst
e|---------------------------------------------------------------------------|
B|-------------------------------1-----------1-------------------------------|
G|-------0-----------0---------0---0-------0---0-----------------------------|
D|-----4---4-------4---4-----4-------4---4-------4---------------------------|
A|---2-------2---2-------2-3-----------3-------------------------------------|
E|-0-----------0-------------------------------------------------------------|
  je dole             malo nade               auto-
e|---------------------------------------------------------------------------|
B|-------------------------------1-----------1-------------------------------|
G|-------0-----------0---------0---0-------0---0-----------------------------|
D|-----4---4-------4---4-----4-------4---4-------4---------------------------|
A|---2-------2---2-------2-3-----------3-------------------------------------|
E|-0-----------0-------------------------------------------------------------|
  stoper            samcat čeka                 da
e|---------------------------------------------------------------------------|
B|-------------------------------1-----------1-------------------------------|
G|-------0-----------0---------0---0-------0---0-----------------------------|
D|-----4---4-------4---4-----4-------4---4-------4---------------------------|
A|---2-------2---2-------2-3-----------3-------------------------------------|
E|-0-----------0-------------------------------------------------------------|
   naidjem            iz daleka

Chorus:
e|-----------------0-----------------0-----0-0-------------------------------|
B|-----------0-------0---0-------------1---0---0-----------------------------|
G|---------2---2-------2---2-------0-----0-2-----0---------------------------|
D|-------2-------2-----------2---2---------1---------------------------------|
A|-----0-----------------------3-----------2---------------------------------|
E|---------------------------------------------------------------------------|
 Netko dobar       netko zao a tko bi gaaaaa uvijek znao.

Solo:
e|---------------------------------------------------------------------------|
B|---------------------------------------------------------------------------|
G|---------------------------------------------------------------------------|
D|---4-5-4-5-9----------4-5-4-5-9--------------------------------------------|
A|-7-----------5-3-2--7-----------5-3-2--------------------------------------|
E|---------------------------------------------------------------------------|

e|---------------------------------------------------------------------------|
B|-5-7-8-10-5-7-8-7-8-10-----------------------------------------------------|
G|-----------------------7-5-4-----------------------------------------------|
D|---------------------------------------------------------------------------|
A|---------------------------------------------------------------------------|
E|---------------------------------------------------------------------------|

Verse:
e|---------------------------------------------------------------------------|
B|----------------------------------1-----------1----------------------------|
G|----------0-----------0---------0---0-------0---0--------------------------|
D|--------4---4-------4---4-----4-------4---4-------4------------------------|
A|------2-------2---2-------2-3-----------3----------------------------------|
E|----0-----------0----------------------------------------------------------|
 Kraj prasnjavog            bijelog puta           na 
e|---------------------------------------------------------------------------|
B|-------------------------------1-----------1-------------------------------|
G|-------0-----------0---------0---0-------0---0-----------------------------|
D|-----4---4-------4---4-----4-------4---4-------4---------------------------|
A|---2-------2---2-------2-3-----------3-------------------------------------|
E|-0-----------0-------------------------------------------------------------|
   sjedištu             od kaputa           auto-
e|---------------------------------------------------------------------------|
B|-------------------------------1-----------1-------------------------------|
G|-------0-----------0---------0---0-------0---0-----------------------------|
D|-----4---4-------4---4-----4-------4---4-------4---------------------------|
A|---2-------2---2-------2-3-----------3-------------------------------------|
E|-0-----------0-------------------------------------------------------------|
  stoper            samcat čeka                 da
e|---------------------------------------------------------------------------|
B|-------------------------------1-----------1-------------------------------|
G|-------0-----------0---------0---0-------0---0-----------------------------|
D|-----4---4-------4---4-----4-------4---4-------4---------------------------|
A|---2-------2---2-------2-3-----------3-------------------------------------|
E|-0-----------0-------------------------------------------------------------|
   zalutam            iz daleka

Chorus
e|-----------------0-----------------0-----0-0-------------------------------|
B|-----------0-------0---0-------------1---0---0-----------------------------|
G|---------2---2-------2---2-------0-----0-2-----0---------------------------|
D|-------2-------2-----------2---2---------1---------------------------------|
A|-----0-----------------------3-----------2---------------------------------|
E|---------------------------------------------------------------------------|
 Netko dobar       netko zao a tko bi gaaaaa uvijek znao.

Solo:
e|---------------------------------------------------------------------------|
B|---------------------------------------------------------------------------|
G|---------------------------------------------------------------------------|
D|---4-5-4-5-9----------4-5-4-5-9--------------------------------------------|
A|-7-----------5-3-2--7-----------5-3-2--------------------------------------|
E|---------------------------------------------------------------------------|

e|---------------------------------------------------------------------------|
B|-5-7-8-10-5-7-8-7-8-10-----------------------------------------------------|
G|-----------------------7-5-4-----------------------------------------------|
D|---------------------------------------------------------------------------|
A|---------------------------------------------------------------------------|
E|---------------------------------------------------------------------------|

e|---------------------------------------------------------------------------|
B|---------------------------------------------------------------------------|
G|---------------------------------------------------------------------------|
D|---4-5-4-5-----------------------------------------------------------------|
A|-7-------------------------------------------------------------------------|
E|---------------------------------------------------------------------------|

End

| /  slide up
| \  slide down
| h  hammer-on
| p  pull-off
| ~  vibrato
| +  harmonic
| x  Mute note
===============================================================================
Добавлено: 07.03.2012
Другие материалы по этой песне:
  • Аккорды и текст

Страница создана 07.03.2012
http://primanota.ru/atomsko-skloniste/netko-dobar-netko-zao-chords.htm
Привет, Гость.
Предлагаем пройти революционный курс по гитаре.
Подарок от PrimaNota.Ru, забирай!