PrimaNota.ru - самый крупный в мире бесплатный архив песенных текстов, аккордов, табулатур и нот


Atomship - Dragonfly - текст песни, таба, видео

Регистрация Запомнить меня
Войти через:  Facebook Google Twitter Vk Yandex Mail.ru

Atomship - Dragonfly - текст песни, таба, видео

Печатать
Просмотров: 117
Artist: Atomship
Song:   Dragonfly
Tuning: CGCFAD
Tabbed By: Spencer Holcomb

Strum for Intro:

D|--0------0-----------0----------------------------------------||
A|--0------0-----------0----------------------------------------||
F|--6------6-----------6----------------------------------------|| (x4)
C|--4-(x4)-4-(x4)-then-4-(x4)-----------------------------------||
G|--2------5-----------5----------------------------------------||
C|--0------0-----------0----------------------------------------||

 1 2 3 4   1 2 3 4     1234
 D U D U   D U D U     DUDU  

Verse:

D|--------------------------------------------------------------||
A|--------------------------------------------------------------||
F|------6-------------------------------------------------------||
C|----4---4--------7p5---7p5---5--------------------------------||
G|--2------------5----------------------------------------------||
C|-----------0-5-------5-----5----------------------------------||

Chorus:

D|--------------------------------------------------------------||
A|--------------------------------------------------------------||
F|------------6-6-6-6-6-6-6-6---7-7-7-7--7-7-7-7-7-7-7----------|| (x4)
C|--5-5-5-5---4-4-4-4-4-4-4-4---7-7-7-7--7-7-7-7-7-7-7----------||
G|--5-5-5-5---2-2-2-2-2-2-2-2---5-5-5-5--5-5-5-5-5-5-5----------||
C|--5-5-5-5---0--------------------------5-5-5-5-5-5-5----------||

Third time on Chorus hold the first note of the last set of chords.

VERSE
CHORUS * Stop on 4th time through 3rd set of chords then go to *

Bridge:

D|--------------------------------------------------------------||
A|--------------------------------------------------------------||
F|--------------------------------------------------------------||
C|------7-----7-----7-----7--------4-----4-----4-----4----------||
G|----5-----5-----5-----5--------2-----2-----2-----2------------||
C|--5-----5-----5-----5--------2-----2-----2-----2--------------||

D|--------------------------------------------------------------||
A|--------------------------------------------------------------||
F|--------------------------------------------------------------||
C|--7-7-7-7-x-7--------2-2-2-2-2-2-2-2---------------------------||
G|--5-5-5-5-x-5--(x4)--2-2-2-2------------(x4)------------------||
C|--5-5-5-5-x-5--------2-2-2-2----------------------------------||

D|-------9-----------14-10----9---------------------------------||
A|---7-8---8--------------------8-------------------------------||
F|-0---------7-------------8-------7----------------------------||
C|---------------(x3)-------------------------------------------||
G|--------------------------------------------------------------||
C|--------------------------------------------------------------||

D|-----------------------------------9--------------------------||
A|-------------------------------7-8---8------------------------||
F|-----------------------------0---------7----------------------||
C|-2-2-2-2-2-2-2-2----------------------------------------------||
G|-2-2-2-2-------------------------------------(x4)-------------||
C|-2-2-2-2------------------------------------------------------||


INTRO
CHORUS
INTRO

End on:

D|---
A|---
F|---
C|-4-
G|-4- Hold
C|-4-
Добавлено: 13.11.2013
Вам также может быть интересно:
Другие материалы по этой песне:
  • Аккорды и текст

Страница создана 14.04.2012
http://primanota.ru/atomship/dragonfly-chords.htm
Привет, Гость.
Предлагаем пройти революционный курс по гитаре.
Подарок от PrimaNota.Ru, забирай!