PrimaNota.ru - самый крупный в мире бесплатный архив песенных текстов, аккордов, табулатур и нот


Atomship - Day Of Daze - текст песни, таба, бас-таба, видео

Регистрация Запомнить меня
Войти через:  Facebook Google Twitter Vk Yandex Mail.ru

Atomship - Day Of Daze - текст песни, таба, бас-таба, видео

Печатать
Просмотров: 189
-----------------------------------------------------------------------------
                             Day of Daze - Atomship
-----------------------------------------------------------------------------
Tabbed by: Ibanez3454

Tuning: E,A,D,G,B,e

Intro/Chorus
e|-------------------------------------------------------------------------|
B|-------------------------------------------------------------------------|
G|-------------------------------------------------------------------------|
D|-5/7-7-7-3-3--3—-5/7-7-7-3-3--3-3-x-x-x-x--------------------------------|
A|-3/5-5-5-1-1--1—-3/5-5-5-1-1--1-1-x-x-x-x--------------------------------|
E|-------------------------------------------------------------------------|

Verse                     Pre-Chorus(It was a good day she died…)
e|----------------------|--------------------------------------------------|
B|--3-----3---3---------|--------------------------------------------------|
G|-2-2---2---2-2--------|--------------------------------------------------|
D|----3-5-------3--5----|-5-----5/7----------------------------------------|
A|----------------------|-3(x6)-3/5----------------------------------------|
E|----------------------|--------------------------------------------------|

Chorus

Right before the 2nd verse play this then play Verse again
e|-------------------------------------------------------------------------|
B|---3-----3---------------------------------------------------------------|
G|--2-2---2-2--------------------------------------------------------------|
D|-3-----3-----------------------------------------------------------------|
A|-------------------------------------------------------------------------|
E|-------------------------------------------------------------------------|

Bridge
e|-------------------------------------------------------------------------|
B|-------------------------------------------------------------------------|
G|-------------------------------------------------------------------------|
D|-------------------------------------------------------------------------|
A|----5/7-------7-7------5-5-3-3-2-2---------------------------------------|
E|----3/5-(5x)--5-5-(5x)-3-3-1-1-0-0---------------------------------------|
Pm|---.-.------------------------------------------------------------------|

(get her head as close to the floor I feel so a-live!!)
e|-----------------------------------|Third time at end play this----------|
B|-----------------------------------|-------------------------------------|
G|-----------------------------------|-------------------------------------|
D|--7-7-7--5-5-5--3-3-3--5-5-5-------|--7-7--7-7--7-7----------------------|
A|--5-5-5--3-3-3--1-1-1--3-3-3—(3x)--|--5-5--5-5--5-5----------------------|
E|-----------------------------------|-------------------------------------|
Pm|-.-.-.--.-.-.--.-.-.--.-.-.-------|-------------------------------------|

Chorus




Outro
e|-------------------------------------------------------------------------|
B|-------------------------------------------------------------------------|
G|-------------------------------------------------------------------------|
D|------7-7-7-----7-7-7-----7-----7-7-7---7--------------------------------|
A|--7-7-7-7-7-7-7-7-7-7-7-7-7-7-7-7-7-7-7-7--------------------------------|
E|--5-5-------5-5-------5-5---5-5-------5---(2x)---------------------------|
Pm|-.-.-------.-.-------.-.---.-.-------.----------------------------------|


| /  slide up
| \  slide down
| h  hammer-on
| p  pull-off
| ~  vibrato
| +  harmonic
| x  Mute note
===============================================================================

Добавлено: 30.04.2012
Другие материалы по этой песне:
  • Аккорды и текст

Страница создана 25.04.2012
http://primanota.ru/atomship/day-of-daze-chords.htm
Привет, Гость.
Предлагаем пройти революционный курс по гитаре.
Подарок от PrimaNota.Ru, забирай!