PrimaNota.ru - самый крупный в мире бесплатный архив песенных текстов, аккордов, табулатур и нот


Atoms For Peace - What The Eyeballs Did - бас-таба, видео

Регистрация Запомнить меня
Войти через:  Facebook Google Twitter Vk Yandex Mail.ru

Atoms For Peace - What The Eyeballs Did - бас-таба, видео

Печатать
Просмотров: 177
Уроки эстрадного вокала в Санкт-Петербурге
This is Flea's bass part to the Atoms for Peace track What The Eyeballs Did.

Structure:
Main Riff x28
Chorus
Main Riff x10
Coda

Main Riff
G|---------------------------------------|
D|---------------------------------------|
A|-0----3----0-33--3-0-3--3-0-4--4-0-5---|
E|---------------------------------------|

Chorus
G|---------------------------------------| x2
D|---------------------------------------|
A|------6------66--6---6--6---7--7---8---|
E|-8---------8-------8------8------8-----|

G|---------------------------------------| x2
D|---------------------------------------|
A|------4------44--4---4--4---5--5---6---|
E|-6---------6-------6------6------6-----|

G|---------------------------------------| x2
D|---------------------------------------|
A|------1------11--1---1--1---2--2---3---|
E|-3---------3-------3------3------3-----|

Coda
(He switches between the two times to play the b on the e-string at
 will(either just before the fast 7's or with a pause between).
Just switching between the two should be fine to play it, though.
G|---------------------------------------------------| x12.5
D|---------------------------------------------------|
A|-----------77777p5----5-5-----------77777p5----5-5-|
E|-0--------7--------7-----0------7-----------7------|
Добавлено: 13.06.2013
Другие материалы по этой песне:
  • Аккорды и текст

Страница создана 13.06.2013
http://primanota.ru/atoms-for-peace/what-the-eyeballs-did-chords.htm
Привет, Гость.
Предлагаем пройти революционный курс по гитаре.
Подарок от PrimaNota.Ru, забирай!