PrimaNota.ru - самый крупный в мире бесплатный архив песенных текстов, аккордов, табулатур и нот


Atoms For Peace - Sad - бас-таба, видео

Регистрация Запомнить меня
Войти через:  Facebook Google Twitter Vk Yandex Mail.ru

Atoms For Peace - Sad - бас-таба, видео

Печатать
Просмотров: 126
This is classic Goldrich-produced and Flea-played bass. A fine example of an 
extremely simple bassline that is so effective. Note that the mute and slide I 
have included is optional as it was the best method I found to emulate this style 
of production while playing in your bedroom.

Legend:
/ Slide up
x Muted note

Main part: (repeat for whole song)

G|---------------------------------------------------|
D|-------------/77---5------------------55---4-------|
A|---------------------------------------------------|
E|-----5-------------------x5---7-----------------x3-|

At 4:29 play this twice:

G|-------------------------------------------------------------------------------|
D|--------5---------5--------5---------5---------5---------5--------5---------5--|
A|--7-7-------7-7------7-7-------7-7-------7-7-------7-7------7-7-------7-7------|
E|-------------------------------------------------------------------------------|

Go back to main part for rest of song
Добавлено: 09.09.2013
Другие материалы по этой песне:
  • Аккорды и текст

Страница создана 09.09.2013
http://primanota.ru/atoms-for-peace/sad-chords.htm
Привет, Гость.
Предлагаем пройти революционный курс по гитаре.
Подарок от PrimaNota.Ru, забирай!