PrimaNota.ru - самый крупный в мире бесплатный архив песенных текстов, аккордов, табулатур и нот


Atoms For Peace - Default Live - таба, видео

Регистрация Запомнить меня
Войти через:  Facebook Google Twitter Vk Yandex Mail.ru

Atoms For Peace - Default Live - таба, видео

Печатать
Просмотров: 49
-------------------------------------------------------------------------------
                     Default (live acoustic) - Atoms For Peace
-------------------------------------------------------------------------------
Tabbed by: Weerman44
E-mail: ralfreuvers@hotmail.com

Tuning: Standard tuning

This is the rhythm of strumming for the Verses (sometimes the '4e' and the '4a' are played):
1 e and a - 2 e and a - 3 e and a - 4 e and a
-    -  -   - -     -     -     -   -(-) - (-)

VERSE:  
e|-----------------------------------------------------------------------------|
B|-------------------------------------------------0-----0---------------------|
G|-----------------------------------------------------------------------------|
D|----4-------4-----4-----4----------4-------4-----4-----4---------------------|
A|----0-------0-----0-----0----------0-------0--6-(0)-6-(0)-6------------------|
E|-2-(0)-2-2-(0)-2-(0)-2-(0)-2----5-(0)-5-5-(0)--------------------------------|2x

e|-----------------------------------------------------------------------------|
B|-----------------------------------------------------------------------------|
G|-----------------------------------------------------------------------------|
D|----4-------4-----4-----4----------4-------4-----4-----4---------------------|
A|----0-------0-----0-----0----------0-------0-----0-----0---------------------|
E|-2-(0)-2-2-(0)-2-(0)-2-(0)-2----5-(0)-5-5-(0)-0-(0)-0-(0)-0------------------|

e|-----------------------------------------------------------------------------|
B|----0-------0-----0-----0-----0---0---------0-------0-----0-----0-----0---0--|
G|-----------------------------------------------------------------------------|
D|----4-------4-----4-----4-----4---4---------4-------4-----4-----4-----4---4--|
A|-6-(0)-6-6-(0)-6-(0)-6-(0)-6-(0)-(0)-----6-(0)-6-6-(0)-6-(0)-6-(0)-6-(0)-(0)-|
E|-----------------------------------------------------------------------------|(Rhythmis the 4e-4a variation!)
Play the Verse 2 times

CHORUS
e|------------------------------| e--------------------------------------------|
B|--------------7----9-----7----| B--2---3----7----9----7----------------------|
G|-3------4----------------8----| G--3---4--------------8----------------------|
D|--------------7----9----------| D-----------7----9---------------------------|
A|-4------5-----5----7-----9----| A--4---5----5----7----9----------------------|
E|-2------3----------------7----| E--2---3--------------7----------------------|3x (2nd part chorus)

BRIDGE
e|-----------------------------------------------------------------------------|
B|-9----7----12---(7)----------------------------------------------------------|
G|-----------------8-----------------------------------------------------------|
D|-9----7----12----------------------------------------------------------------|
A|-7----5----10----9-----------------------------------------------------------|
E|-----------------7-----------------------------------------------------------|3x

VERSE (1st part played 3x)

CHORUS

BRIDGE (2x)

LAST PART:
e|-----------------------------------------------------------------------------| 
B|-11--12----------7----9-----7------------------------------------------------|
G|-----------4----------------8------------------------------------------------| 
D|-11--12----------7----9------------------------------------------------------| 
A|-9---10----5-----5----7-----9------------------------------------------------|
E|-----------3----------------7------------------------------------------------|

Добавлено: 09.06.2016
Другие материалы по этой песне:
  • Аккорды и текст

Страница создана 09.06.2016
http://primanota.ru/atoms-for-peace/default-live-chords.htm
Привет, Гость.
Предлагаем пройти революционный курс по гитаре.
Подарок от PrimaNota.Ru, забирай!