PrimaNota.ru - самый крупный в мире бесплатный архив песенных текстов, аккордов, табулатур и нот


Atomizer - One Man's Failure - текст песни, таба, видео

Регистрация Запомнить меня
Войти через:  Facebook Google Twitter Vk Yandex Mail.ru

Atomizer - One Man's Failure - текст песни, таба, видео

Печатать
Просмотров: 74
 Band:  Atomizer
 Album: The Only Weapon of Choice - 13 Odes to Power, Decimation and Conquest
 Song:  One Man's Failure 
 Tabbed by: MW600 / martyrdoom9@gmail.com


 INTRO RIFF
|-------------------------------------------------------------|
|-------------------------------------------------------------|
|-------------------------------------------------------------|
|-------------------------------------------------------------|
|--9~------------7~------------9~-----------6--5-6-7--6-7-----|
|--7~-0-0-0-0-0--5~-0-0-0-0-0--7~-0-0-0-0-0-4--3-4-5--4-5-----|
      . . . . .     . . . . .     . . . . .                                                

 MAIN/VERSE RIFF
|--------------------------------|
|--------------------------------|
|--------------------------------|
|--------------------------------|
|-9-----5-----7------10---10-----|
|-7-0-0-3-0-0-5-0-0--8----8------|
    . .   . .   . .                                                                 
 
 THIRD TIME BEFORE THE FIRST VERSE:
|--------------------------------|
|--------------------------------|
|--------------------------------|
|--------------------------------|
|-9-9-9--5-5-5--7-7-7--10---10---|
|-7-7-7--3-3-3--5-5-5--8----8----|
                                                                              

 PRE-CHORUS RIFF:
|------------------------------------------|
|------------------------------------------|
|------------------------------------------|
|------------------------------------------|
|--5-4-2--5-4-2--4--2--6-6-7-8-7-6-7-8-----|
|--3-2-0--3-2-0--2--0--4-4-5-6-5-4-5-6-----|
                                                                              

 CHORUS RIFF A
|------------------------------------------|
|------------------------------------------|
|------------------------------------7-7---|
|--9-9-9-7/9--9-9--7/9--9-9---9-5-5--7-7---|
|--9-9-9-7/9--9-9--7/9--9-9---9-5-5--5-5---|
|--7-7-7-5/7--7-7--5/7--7-7---7-3-3--------|
                                                                              
 CHORUS RIFF B
|------------------------------------------|
|------------------------------------------|
|------------------------------------------|
|--9-9-9-7/9--9-9--7/9--9-9---9-5-5--6-6---|
|--9-9-9-7-9--9-9--7-9--9-9---9-5-5--6-6---|
|--7-7-7-5/7--7-7--5/7--7-7---7-3-3--4-4---|
                                                                              

 ENDING RIFF
|-----------------------|
|-----------------------|
|-----------------------|
|-----------------------|
|--2-3-2---8-8-8-7-7-7--|
|--0-1-0---6-6-6-5-5-5--|
                                                                              
 ENDING RIFF - SECOND GUITAR
|--------------------------|
|--------------11-----10---|
|-----------10------9------|
|---------8-------7--------|
|--2-3-2-------------------|
|--0-1-0-------------------|
               

THEN PLAY INTRO RIFF I THINK 2 TIMES, THEN ENDING RIFF AGAIN.

                                                               
 END THE SONG WITH THIS:
|----------|
|----------|
|----------|
|----------|
|--2-3-2---|
|--0-1-0---|                                                                  

END.
Добавлено: 10.05.2016
Другие материалы по этой песне:
  • Аккорды и текст

Страница создана 13.04.2012
http://primanota.ru/atomizer/one-mans-failure-chords.htm
Привет, Гость.
Предлагаем пройти революционный курс по гитаре.
Подарок от PrimaNota.Ru, забирай!