PrimaNota.ru - самый крупный в мире бесплатный архив песенных текстов, аккордов, табулатур и нот


Atomic Bush - Sano Prakash - таба, видео

Регистрация Запомнить меня
Войти через:  Facebook Google Twitter Vk Yandex Mail.ru

Atomic Bush - Sano Prakash - таба, видео

Печатать
Просмотров: 146
Уроки эстрадного вокала в Санкт-Петербурге
So here is the Solo for Sano Praksh.
I think It is a bit difficult to play. SO good Luck. Might not sound accurate.

E||-------|-------------------------------|--------------------------------|
B||-------|-------------------------------|--------------------------------|
G||-------|---------------------8--9--11--|--11s--13----------11--9--------|
D||-------|--------------9--11------------|--------------------------------|
A||-------|----------11-------------------|--------------------------------|
E||-------|--9h--12-----------------------|--------------------------------|


                              |--3-|

-------------------------------------|------------------------------------|
-------------------------------------|------------------------------------|
-----11-----11h--13----11h--13p--11-|--9-----11--11-----11s--13s--11------|
-------------------------------------|------------------------------------|
-------------------------------------|------------------------------------|
-------------------------------------|------------------------------------|



----------------------------|-------------------------------|
----------------------------|----------------x\-------------|
--11------\-----7g9----9--|--9s--8--8--8s--6---6--6--6------|
----------------------------|-------------------------------|
----------------------------|-------------------------------|
----------------------------|-------------------------------|


  E   E  E  E  E  E  E  E     E  E  E  E  E  E  E  E
---------------------------|------------------------------|
---------------------------|------------------------------|
--6s--4--4--4--4--6-------|-------------------------------|
------------------------4--|--6--------2--4----4br--------|
---------------------------|------------------------------|
---------------------------|------------------------------|


  E  E  S  S S  S  S S S S  S S  S  S
----------------------------------------|
----------------------------------------|
----------------------------------------|
----2-----------------------------------|
--------4p-2------/4--2-----------/4----|
-------------4p-2--------4p-2-4p-2------|


  S S  S S S S  S S   S   S S S S   S S  S
----------------------------------------------|
----------------------------------------------|
----------------------------------------------|
----------------------------------------------|
---\--------------------9---9h-11---11h-------|
---------------/9-9h-11h-12-------------------|


                                           |--3--|
   S   S  S  S   S   S     S  S  S  S  S   S  S  S   S  S  S
---------------------------------------------------------------|
---------------------------------------------------------------|
--------------------------------------13h---14-16s---14-13-----|
------------11h-13h-14-11g13-14-16-16--------------------------|
--12h-14-14----------------------------------------------------|
---------------------------------------------------------------|


   |---3--|   |---3---|   |---3---|         |---3---|  |---3---|        |---3---
   S   S  S   S   S   S   S   S   S  S  S   S   S   S  S   S   S  S  S  S   S
---------------------------------------------------------------------------------|
---------14h-17p-16p-14h-16h-17h-19------15p-14p-12------------------------------|
--14h-16----------------------------------------------14p-13p-11----11-----------|
-----------------------------------------------------------------14----13h-14p-1-|
---------------------------------------------------------------------------------|
---------------------------------------------------------------------------------|


   S  S  S  S   S   S S S  S S   S  S  S  S  S  S
----------------------------------------------------|
-------------------------------/17-----17-----------|
----------------------------------------------------|
--11------------------------------------------------|
-----14-12-11s-10s-12--\----------------------------|
----------------------------------------------------|


                           |-----5-----|
   S   S  S  S  S  S E  S  T  T  T  T  T S T T  S  S  S
--------------------------------------14------------------|
--17s---16-16---16--------------16------------------------|
--------------------------------16------------------------|
-----------------------------16----------------14-13-14---|
--------------------------14------------------------------|
----------------------------------------------------------|


                                 |---3---|
   S  S  E   E   E  S S S S S S  S   S   S
---------------------------------------------|
---------------------------------------------|
---------------------------------------------|
--13-13--------------------------------------|
--------14-----------------------------------|
------------14--12--------11h-12h-14---------|


   |---3---|  |-------7-------|   7   7 ---- 5   5   5   5 ---- |---3--|   |---3
   S   S   S  S   S   S   S   S   S   S  S   S   S   S   S  S   S   S  S   S   S
---------------------------------------------------------------------------------|
---------------------------------------------------------------------------------|
---------------------------------------------------------------------------------|
----------------------------------------11h-13h-14p-13p-11-13h-14h-16-13h-14h-16-|
-------------11h-12h-14p-12p-11h-12h-14------------------------------------------|
--11h-12h-14---------------------------------------------------------------------|


   |---3---|  |---3---|  |---3---|  |---3---|  |---3---|  |---3---|  |---3---|
   S   S   S  S   S   S  S   S   S  S   S   S  S   S   S  S   S   S  S   S   S
-------------------------------------------------------------------------------1-|
-------------14h-15h-17-14h-15h-17-19p-17p-16-19p-17p-16-16h-17h-19-21p-19p-17---|
--13h-14h-16---------------------------------------------------------------------|
---------------------------------------------------------------------------------|
---------------------------------------------------------------------------------|
---------------------------------------------------------------------------------|


  Q    E   E   E    E   E   E       E   E   E   E   E   E   E   E
---------21-----------19-------|------19------17------16--16--16-----|
--------------19s--17------17s--|--16------16------16----------------|
--------------------------------|------------------------------------|
--------------------------------|------------------------------------|
--------------------------------|------------------------------------|
--------------------------------|------------------------------------|


   E   E    E   E    E    E   E    E     E   E   E   E   E  E   E   E
--------------------------------------|----------------------------------|
------17S--16--16S--12S--14--12s--14--|--7s--9s--5s--7s--5----12b--------|
--16----------------------------------|----------------------------------|
--------------------------------------|----------------------------------|
--------------------------------------|----------------------------------|
--------------------------------------|----------------------------------|


           |---3--|
  E  E  E  E   E  E   S  S S  S S  S     E  E  S  S  E  S  S S  S  E  E
-----------9---------12b--9----------|-------------------------------------|
----------12--9----------12-9-----|----------------------------------------|
----------------------------------11b-|------9-11b---9-11-9-11b------------|
--------------------------------------|------------------------------------|
--------------------------------------|------------------------------------|
--------------------------------------|------------------------------------|


   S  S S S  S S  S  S  S  S   S  S S S S S    S S  S S E  E  E  E  E  E
--------------------------------------------|--------------------------------|
--------------------------------------------|--------------------------------|
--11b---9---------------------------------|----------------------------------|
------------11-9----------------------------|--------------4-----6-----4s----|
-----------------11s-9p-7h-9-<>9b---------|-----------4----------------------|
--------------------------------------9-7--|---\-----------------------------|


  Q    Q    E  E  E  E      E  E  E  E  E  E  E  E
-------------------------|----------------------------|
-------------------------|----------------------------|
-------------------------|--------------6-----6-------|
--6----------4--6--6s--|--7----4----------------------|
-------------------------|----------------------------|
-------------------------|----------------------------|


  E  E  E  E  E    E   E  E       E  E   E    E   E      E  E  E
------------------------------|-------------------------------------|
------------------------------|-------------------------------------|
------8-----8br-----------|------8s--9h--11--11brb~-----------------|
----------------------11--9h--|--11---------------------------------|
------------------------------|-------------------------------------|
------------------------------|-------------------------------------|


  S S S S S S S S E  E   E  E     E  E   E  E  E   E  E  S  S
-------------------------------|--------------------------------|
------------------9-----12-----|--9-----10----------------------|
------------9-----9--|-----9---------8------8--9h---------------|
-------------------------------|------------------11------------|
-------------------------------|--------------------------------|
-------------------------------|--------------------------------|


  S  S S S S   S  S  S S S S S S S  S S     S  S S S  S  S S  S S S S S E  E
-----------------------------------------|---------------------------------------|
-----------------------------------------|---------------------------------------|
--8p-6-4---------------------------------|-------4-------------------------------|
---------6-4br--(4)--2--------------2h-|--4h-6---6p-4p-2-4b----2-----------------|
-------------------------4-2---2h-4----|----------------------------4-2--2s------|
-----------------------------------------|---------------------------------------|

(c) Musicmyth.blogspot.com Guitar Tabs and chords for Sano Prakash by  Atomic Bush
http://musicmyth.blogspot.com
Добавлено: 15.03.2012
Другие материалы по этой песне:

Страница создана 15.03.2012
http://primanota.ru/atomic-bush/sano-prakash-chords.htm
Привет, Гость.
Предлагаем пройти революционный курс по гитаре.
Подарок от PrimaNota.Ru, забирай!