PrimaNota.ru - самый крупный в мире бесплатный архив песенных текстов, аккордов, табулатур и нот


Atomic Bitchwax - Kiss The Sun - текст песни, таба, видео

Регистрация Запомнить меня
Войти через:  Facebook Google Twitter Vk Yandex Mail.ru

Atomic Bitchwax - Kiss The Sun - текст песни, таба, видео

Печатать
Просмотров: 169
The Atomic Bitchwax - Kiss the sun

(Drop D Tuning)

I'm pretty sure is that correct for Guitar rythmic, less for Guitar lead.
Please feel free to comment if you found any mistakes.
(Sorry for my bad English)

e|-----------------------------------|
B|-----------------------------------|
G|-----------------------------------| 
D|--5-7-7-5-7---5-7---5-7---5-7-7-7--| 12x
A|--5-5-5-5-5---5-5---5-5---5-5-5-5--| 
D|-----------------------------------| 


#
| Guitar II
| e|---------------8b------------8b--------------------|
| B|-----------------6\---8b-------6\------------------|
| G|---5h7-7-7\-------------5\-------------5~----------|
| D|------------------------------------5H7------------|
| A|---------------------------------------------------| 
| D|---------------------------------------------------| 
|
|
| e|----------------------------------|
| B|----------------------------------|
| G|---5/-7\-5\4/5/--4p0--------------| 
| D|-----------------------3b-0-------|
| A|----------------------------------| 
| D|----------------------------------| 
|
#

e|-----------------------------------|
B|-----------------------------------|
G|-----------------------------------|
D|-----------------------------------| 4x
A|--5/15\5--5-5-5-5-0-3--------------|
D|--5/15\5--5-5-5-5-0-3--------------|


e|-----------------------------------|
B|-----------------------------------|
G|-----------------------------------| 
D|--5-7-7-5-7---5-7---5-7---5-7-7-7--| 8x
A|--5-5-5-5-5---5-5---5-5---5-5-5-5--| 
D|-----------------------------------|


e|-----------------------------------|
B|-----------------------------------|
G|-----------------------------------|
D|-----------------------------------| 4x
A|--5/15\5--5-5-5-5-0-3--------------|
D|--5/15\5--5-5-5-5-0-3--------------|


e|-----------------------------------|
B|-----------------------------------|
G|-----------------------------------| 
D|--5-7-7-5-7---5-7---5-7---5-7-7-7--| 15x
A|--5-5-5-5-5---5-5---5-5---5-5-5-5--|
D|-----------------------------------|


e|-----------------------------------|
B|-7--5-7-5-7-5-7-5-7\---------------|
G|-7--5-7-5-7-5-7-5-7\---------------|
D|-----------------------------------| 1x
A|---------------------------3-------|
D|-----------------------0-3--5-3-0--|

#
| Guitar II : First Solo
|
| e|----------------------------------------------------------------|
| B|------------------------------------------------6-8-6-8b(hold)--|
| G|---/5-5-4------------------------------5b---5/7-----------------| 
| D|----------3-5-3-5b-5b-5b--3---------3-4-------------------------|
| A|----------------------------5p3-3h5-----------------------------| 
| D|-----------------------------------3----------------------------| 
|
| e|--10------10b-10b----9h10-13-15-15b-12-13---10p8-10-10----|
| B|-----8-6--------------------------------------------------|
| G|----------------------------------------------------------| 
| D|----------------------------------------------------------|
| A|----------------------------------------------------------| 
| D|----------------------------------------------------------| 
|
#

e|-----------------------------------|
B|-----------------------------------|
G|-----------------------------------|
D|-----------------------------------| 4x
A|--5/15\5--5-5-5-5-0-3--------------|
D|--5/15\5--5-5-5-5-0-3--------------|

e|-----------------------------------|
B|-----------------------------------|
G|-----------------------------------|
D|--5-7--5---------------10--7-------| 5x
A|--3-5--3-7--6-5--0-3-0-8---5-------| 
D|---------7--6-5--0-3-0-------------|

e|-----------------------------------|
B|-----------------------------------|
G|-----------------------------------|
D|--5-7-7-5---------------10-10-7----| 8x
A|--3-5-5-5-7-7-6-5--0-3-0-8-8--5----| 
D|----------7-7-6-5--0-3-0-----------|


e|-----------------------------------|
B|-----------------------------------|
G|-----------------------------------|
D|--5-7--5---------------10--7-------|
A|--3-5--3-7--6-5--0-3-0-8---5-------| 
D|---------7--6-5--0-3-0-------------|

e|-----------------------------------|
B|-----------------------------------|
G|-----------------------------------|
D|--5-7--5---------------------------|
A|--3-5--3-7--6-5--0-3-0-3-x-3----5--|
D|---------7--6-5--0-3-0-3-x-3----5--|
 
Добавлено: 12.03.2012
Другие материалы по этой песне:
  • Аккорды и текст

Страница создана 12.03.2012
http://primanota.ru/atomic-bitchwax/kiss-the-sun-chords.htm
Привет, Гость.
Предлагаем пройти революционный курс по гитаре.
Подарок от PrimaNota.Ru, забирай!