PrimaNota.ru - самый крупный в мире бесплатный архив песенных текстов, аккордов, табулатур и нот


Atomic Bitchwax - Forty-Five - текст песни, таба, видео

Регистрация Запомнить меня
Войти через:  Facebook Google Twitter Vk Yandex Mail.ru

Atomic Bitchwax - Forty-Five - текст песни, таба, видео

Печатать
Просмотров: 131
Artist: Atomic Bitchwax, The
Title:  Forty-Five
Album: Atomic Bitchwax II


Drop D Tuning:  DADGBE
Play fast with heavy distortion.


Intro
-------------------------------------------------------------|
-------------------------------------------------------------|
-------------------------------------------------------------| Play
----3--h----------3--h-p-p-------3--h-p-p----3--5--7--10--12\|  X
------3-5-----------3-5-3-0--------3-5-3-0---3--5--7--10--12\|  4
0-0-------0---0-0-----------0--0-------------3--5--7--10--12\|

Interlude
----------------------------------------------------------|
----------------------------------------------------------|
----------------------------------------------------------|
--------------9-11-14-16-18--18-16-14-11-9----------------|
3-5-7--10-12--7--9-12-14-16--16-14-12--9-7--12-10-9--7-5--|
3-5-7--10-12--------------------------------12-10-9--7-5--|



Switch to Lead Pickup
Bridge
---------------------------------------------------------------|
---------------------------------------------------------------|
---------------------------------------------------------------|
------~~~~-------------~~~~----------~~~~------h--p--p--h--p---|
7-7--10-------7---7--10------7---7--10---7-7-12-13-12-10-12-7--|
7-7--10-------7---7--10------7---7--10---7-7-12-13-12-10-12-7--|

Switch back to bridge pickup=20
Riff 1
--------------------------------------------|
--------------------------------------------|=20
--------------------------------------------| Play
--7-5~~~--------0-------7-5~~~--------0-----|  X
--------765-3-0---3~~~--------765-3-0---3~~~|  2
7---------------------7---------------------|

Once I got it-                                            No-o!
Verse Riff
-----------------------------------------------------------------|
-----------------------------------------------------------------|
-----------------------------------------------------------------|
------~~~~--------------~~~~-----------~~~~----------------------|
7-7--10-12------7-7---7--10-7----7-7--10-12------7-7---7--10-7---|
7-7--10-12------7-7---7--10-7----7-7--10-12------7-7---7--10-7---|

Riff 1
--------------------------------------------|
--------------------------------------------|=20
--------------------------------------------| Play
--7-5~~~--------3-------7-5~~~--------0-----|  X
--------765-3-0---3~~~--------765-3-0---3~~~|  2
7---------------------7---------------------|

Once I got it-=20
Riff 1
-----------------------------------------------------------------|
-----------------------------------------------------------------|
-----------------------------------------------------------------|
------~~~~--------------~~~~-----------~~~~----------------------|
7-7--10-12------7-7---7--10-7----7-7--10-12------7-7---7--10-7---|
7-7--10-12------7-7---7--10-7----7-7--10-12------7-7---7--10-7---|


No you don't got nothin'... =20
Chorus Riff (AMaj Blues Shuffle)
-------------------------------------------------|
-------------------------------------------------|
-------------------------------------------------|
2--2--4--2--x2--2--4--2--x2--2--4--2--x2--2--4--2|
0--0--0--0--x0--0--0--0--x0--0--0--0--x0--0--0--0|
-------------------------------------------------|

     Red..             Hot..
-----------------------------------------------------------------|
-----------------------------------------------------------------|
-----------------------------------------------------------------|
------~~~~--------------~~~~-----------~~~~------h--p--p--h--p---|
7-7--10-------7-7---7--10------7---7--10---7-7-12-13-12-10-12-7--|
7-7--10-------7-7---7--10------7---7--10---7-7-12-13-12-10-12-7--|


--------------------------------------------|
--------------------------------------------|=20
--------------------------------------------| Play
--7-5~~~--------3-------7-5~~~--------0-----|  X
--------765-3-0---3~~~--------765-3-0---3~~~|  2
7---------------------7---------------------|

------------------------------------------------------------|
------------------------------------------------------------|
------------------------------------------------------------|
--------------9-11-14--16-18--18-16-14--11-9----------------|
3-5-7--10-12--7--9-12--14-16--16-14-12---9-7--12-10-9--7-5--|
3-5-7--10-12----------------------------------12-10-9--7-5--|

Play from beginning after this.

Transcribed By J. Michael Brown
Theguyfromfargo@yahoo.com
     
Добавлено: 16.08.2013
Вам также может быть интересно:
Другие материалы по этой песне:
  • Аккорды и текст

Страница создана 06.06.2012
http://primanota.ru/atomic-bitchwax/forty-five-chords.htm
Привет, Гость.
Предлагаем пройти революционный курс по гитаре.
Подарок от PrimaNota.Ru, забирай!