PrimaNota.ru - самый крупный в мире бесплатный архив песенных текстов, аккордов, табулатур и нот


Atmosphere - The Arrival - текст песни, бас-таба, видео

Регистрация Запомнить меня
Войти через:  Facebook Google Twitter Vk Yandex Mail.ru

Atmosphere - The Arrival - текст песни, бас-таба, видео

Печатать
Просмотров: 225
THE ARRIVAL - Atmosphere

TABBER: Unicorn Death
EMAIL: Albinojellyfish1@Gmail.com

TUNING: Standard

At least its easier than Smart Went Crazy.

ACTUAL BASS PART:
G|----------------------------|
D|---5------------------------|
A|------5-3---5-3---5-3-------|
E|----------------------3-1---|

Repeated through the whole song.



If you want to play an improvisation of 
the melody, it goes something like:
G|-----------------------------|
D|---5-------5-----------------|
A|-----5-3-5---5-3---5-3-------|
E|-----------------3-----3-1---|

Добавлено: 11.03.2012
Другие материалы по этой песне:
  • Аккорды и текст

Страница создана 11.03.2012
http://primanota.ru/atmosphere/the-arrival-chords.htm
Привет, Гость.
Предлагаем пройти революционный курс по гитаре.
Подарок от PrimaNota.Ru, забирай!