PrimaNota.ru - самый крупный в мире бесплатный архив песенных текстов, аккордов, табулатур и нот


Atmosphere - Shoulda Know - бас-таба, видео

Регистрация Запомнить меня
Войти через:  Facebook Google Twitter Vk Yandex Mail.ru

Atmosphere - Shoulda Know - бас-таба, видео

Печатать
Просмотров: 139
Drop D tuning

Really simple song and fun to play.


G|--------------------------------------------------|
D|-------6--------------------6---------------------|
A|--7-9------------------7-9------------------------|
D|--------6-6--11/9------------6-6--11/9------------|


G|--------------------------------------------------|
D|-------6--------------------6---------------------|
A|--7-9------------------7-9------------------------|
D|--------6-6--11/9------------6-6--11/9------------|


Repeat...
Добавлено: 04.07.2012
Другие материалы по этой песне:
  • Аккорды и текст

Страница создана 04.07.2012
http://primanota.ru/atmosphere/shoulda-know-chords.htm
Привет, Гость.
Предлагаем пройти революционный курс по гитаре.
Подарок от PrimaNota.Ru, забирай!