PrimaNota.ru - самый крупный в мире бесплатный архив песенных текстов, аккордов, табулатур и нот


Atmosphere - Moder Mans Hustle - бас-таба, видео

Регистрация Запомнить меня
Войти через:  Facebook Google Twitter Vk Yandex Mail.ru

Atmosphere - Moder Mans Hustle - бас-таба, видео

Печатать
Просмотров: 159
Standard Tunning 
Tabbed by A.J.A

Intro

g|--------------------------------------------------|
d|--------------------------------------------------|
a|---5---7h9---7-7-6---5---7h9------4-5-------------|
e|-----------7-----------------6h7------------------|

Chorous x2

I will show you all you need to know...
 
g|--------------------------------------------------|
d|--------------------------------------------------|
a|---5--7h9-----4-5---5--7h9-----4---5--------------|
e|----------7-7--------------7-7--------------------|

alternative fill sometimes played 

g|---------------------|
d|---------------------|
a|--5--7-9------4-5----|
e|-----------6h7-------|

Verse 1

Who cares what Jane says...
g|--------------------------------------------------|
d|--------------------------------------------------|
a|---5--7h9-----4-5---5--7h9-----4---5--------------|
e|----------7-7--------------7-7--------------------|

Little sister...
g|--------------------------------------------------|
d|--------------------------------------------------|
a|---5--7h9-----4-5---5--7h9-----4---5--------------|
e|----------7-7--------------7-7--------------------|


Got used to...
g|--------------------------------------------------|
d|--------------------------------------------------|
a|---5--7h9-----4-5---5--7h9-----4---5--------------|
e|----------7-7--------------7-7--------------------|

Little baby doll...
g|--------------------------------------------------|
d|--------------------------------------------------|
a|---5--7h9-----4-5---5--7h9-----4---5--------------|
e|----------7-7--------------7-7--------------------|

It hurts...
g|--------------------------------------------------|
d|--------------------------------------------------|
a|---5---7h9---7-7-6---5---7h9------4-5-------------|
e|-----------7------------------6h7-----------------|

Chorus x 2

Verse 2

Hush little lady dont say a word...


g|--------------------------------------------------|
d|--------------------------------------------------|
a|---5---7h9---7-7-6---5---7h9------4-5-------------|
e|-----------7------------------6h7-----------------|

Im a chapter in you text book...
g|--------------------------------------------------|
d|--------------------------------------------------|
a|---5--7h9-----4-5---5--7h9-----4---5--------------|
e|----------7-7--------------7-7--------------------|

The moderns man hustle... 
g|--------------------------------------------------|
d|--------------------------------------------------|
a|---5--7h9-----4-5---5--7h9-----4---5--------------|
e|----------7-7--------------7-7--------------------|
 
So let...
g|--------------------------------------------------|
d|--------------------------------------------------|
a|---5--7h9-----4-5---5--7h9-----4---5--------------|
e|----------7-7--------------7-7--------------------|

lay your head...
g|--------------------------------------------------|
d|--------------------------------------------------|
a|---5--7h9-----4-5---5--7h9-----rest---------------|
e|----------7-7-------------------------------------|

Chorus x2

Outro
g|--------------------------------------------------|
d|--------------------------------------------------|
a|---5--7h9---7-7-6---5--7h9-----7-7-6--------------|
e|-----------7------------------7-------------------|

g|--------------------------------------------------|
d|--------------------------------------------------|
a|---5--7h9---4-5---5--7h9------4-5-----------------|
e|----------7---------------6h7---------------------|
Добавлено: 11.04.2012
Другие материалы по этой песне:
  • Аккорды и текст

Страница создана 11.04.2012
http://primanota.ru/atmosphere/moder-mans-hustle-chords.htm
Привет, Гость.
Предлагаем пройти революционный курс по гитаре.
Подарок от PrimaNota.Ru, забирай!