PrimaNota.ru - самый крупный в мире бесплатный архив песенных текстов, аккордов, табулатур и нот


Atmosfear - Huorglass - таба, видео

Регистрация Запомнить меня
Войти через:  Facebook Google Twitter Vk Yandex Mail.ru

Atmosfear - Huorglass - таба, видео

Печатать
Просмотров: 83
-------------------------------------------------------------------------------
			     Hourglass - ATMOSFEAR
-------------------------------------------------------------------------------
Tabbed by: Alex
Email:

Tuning: Drop C (CGCFAD)

  Intro riff guitar 1
D|---------------------------------------------------------------------------|
A|---------------------------------------------------------------------------|
F|-----10-9---5p7------------10-9---5p7--------------------------------------|
C|----------------5p7-------------------5p7--5-------------------------------|
G|----------------------3p5------------------3-------------------------------|
C|---00-----00---0-----0---00----00----0----0--------------------------------|   
     xx     xx   x     x   xx    xx    x    x



D|---------------------------------------------------------------------------|
A|---------------------------------------------------------------------------|
F|----10-9---5p7------------10-9---5p7---------------------------------------|
C|---------------5p7-------------------5p7--5--------------------------------|
G|-------------------3p7--------------------3--------------------------------|
C|--88-----88-------------88-----88------------------------------------------|  
    xx     xx             xx     xx

                        (x2)

  Intro riff guitar 2
D|---------------------------------------------------------------------------|
A|---------------------------------------------------------------------------|
F|---------------------------------------------------------------------------|
C|--00--------------------00----------------10~8----------88-----------10~---|
G|--00--------------------00----------------10~8----------88-----------10~---|
C|--00--------------------00----------------10~8----------88-----------10~---|  
    xx                    xx                   x          xx



D|---------------------------------------------------------------------------|
A|---------------------------------------------------------------------------|
F|---------------------------------------------------------------------------|
C|--0~~~~~~~~~~~~~~~~~~~~~0-----------------10~8~~~~~~~~~~8------------10----|
G|--0~~~~~~~~~~~~~~~~~~~~~0-----------------10~8~~~~~~~~~~8------------10----|
C|--0~~~~~~~~~~~~~~~~~~~~~0-----------------10~8~~~~~~~~~~8------------10----|
                        x                               x


   Verse 1

  (It's the same tabs for guitar 1 as the intro)
   
Guitar 2
D|---------------------------------------------------------------------------|
A|---------------------------------------------------------------------------|
F|---------------------------------------------------------------------------|
C|---------------------------------------------------------------------------|
G|--0000000000000000-10101010-88888888888888-10101010------------------------|
C|--0000000000000000-10101010-88888888888888-10101010------------------------|  
    xxxxxxxxxxxxxxxx xxxxxxxx xxxxxxxxxxxxxx xxxxxxxx
                     
  
  (The notes shall be played in a row, i just seperated them because it looked messy)




D|---------------------------------------------------------------------------|
A|---------------------------------------------------------------------------|
F|----14-12--9p10-7p9-5p7---14-12--9p10-7p9-5~-------------------------------|
C|--00-----00----0---0----00-----00----0---0---------------------------------|
G|---------------------------------------------------------------------------|
C|---------------------------------------------------------------------------|
   


D|---------------------------------------------------------------------------|
A|---------------------------------------------------------------------------|
F|----14-12--9p10-7p9-5p7---14-12--9p10-7p9-5~-------------------------------|
C|--88-----88-------------88-----88------------------------------------------|
G|---------------------------------------------------------------------------|
C|---------------------------------------------------------------------------|
                             (x2)

   Bridge 1

   Guitar 1

(This is the chords in order, the rythm is hard to explain in numbers but the 
chords changes with the notes of guitar 2)(The chords shall be played like the 
melody guitar 2 plays)
D|---------------------------------------------------------------------------|
A|---------------------------------------------------------------------------|
F|----------10--------------------------------------------10-----------------|
C|--10------8------14------12------15------14------10-----8------14----------|
G|--8-------8------10------12------12------10------8------8------10----------|
C|--8-------8------10------12------12------10------8------8------10----------|


 

  Guitar 2 (Melody)

D|---------------------------------------------------------------------------|
A|---------------------------------------------------------------------------|
F|---------------------------------------------------------------------------|
C|-10~~~15~14b~12~~15~14b~12~~15~14b-----------------------------------------|
G|---------------------------------------------------------------------------|
C|---------------------------------------------------------------------------|


 
  (The building up for the chorus, both guitars)

D|---------------------------------------------------------------------------|
A|---------------------------------------------------------------------------|
F|---------------------------------------------------------------------------|
C|-------------------0-----0-----12121212------------------------------------|
G|-------------------0-----0-----10101010------------------------------------|
C|--12-0-0-0-0-0-0-0-0-0-0-0-0-0-10101010------------------------------------|




  Chorus 1 
  
  Guitar 1

  (Same as the bridge)
D|---------------------------------------------------------------------------|
A|---------------------------------------------------------------------------|
F|----------10--------------------------------------------10-----------------|
C|--10------8------14------12------15------14------10-----8------14----------|
G|--8-------8------10------12------12------10------8------8------10----------|
C|--8-------8------10------12------12------10------8------8------10----------|


   (This is the part in the middle of the chorus that breaks the melody)

D|---------------------------------------------------------------------------|
A|---------------------------------------------------------------------------|
F|---------------------------------------------------------------------------|
C|--------------------------------12121212~----------------------------------|
G|--------------------------------10101010~----------------------------------|
C|--12-0-0-0-0-00-00--000-0-0-0-0-10101010~----------------------------------|


   Chorus 1 

   Guitar 2
D|---------------------------------------------------------------------------|
A|---------------------------------------------------------------------------|
F|---------------------------------------------------------------------------|
C|-10~~~15~14b~12~~15~14b~12~~15~14b----------------------------12121212~----|
G|--------------------------------------------------------------10101010~----|
C|----------------------------------12-0-0-0-0-00-00--000-0-0-0-10101010~----|




D|---------------------------------------------------------------------------|
A|---------------------------------------------------------------------------|
F|-----------------14~12~----------------------------------------------------|
C|-10~~~15~14b~12~~------12~~15~14b-----------------------------12121212~----|
G|--------------------------------------------------------------10101010~----|
C|----------------------------------12-0-0-0-0-00-00--000-0-0-0-10101010~----|


 Verse 2
   (It's the same tabs for guitar 1 as in the first verse)
  
  Guitar 2

D|---------------------------------------------------------------------------| (x2)
A|---------------------------------------------------------------------------|
F|---------------------------------------------------------------------------|
C|---------------------------------------------------------------------------|
G|--00-------------00-------010-88--------88---------810---------------------|
C|--00-------------00-------010-88--------88---------810---------------------|  
    xx             xx       x   xx        xx         x


  
D|---------------------------------------------------------------------------|
A|---------------------------------------------------------------------------|
F|----14-12--9p10-7p9-5p7---14-12--9p10-7p9-5~-------------------------------|
C|--00-----00----0---0----00-----00----0---0---------------------------------|
G|---------------------------------------------------------------------------|
C|---------------------------------------------------------------------------|
   


D|---------------------------------------------------------------------------|
A|---------------------------------------------------------------------------|
F|----14-12--9p10-7p9-5p7---14-12--9p10-7p9-5~-------------------------------|
C|--88-----88-------------88-----88------------------------------------------|
G|---------------------------------------------------------------------------|
C|---------------------------------------------------------------------------|



  Breakdown

  
D|---------------------------------------------------------------------------|
A|---------------------------------------------------------------------------|
F|---------------------------------------------------------------------------|
C|--0~~-------------------------5---2----------------------------------------|
G|--0~~------------------------8-8-3-3----------------------------------------|
C|--0~~000-0-0--000-0-0--000-0-----------------------------------------------|






D|---------------------------------------------------------------------------|
A|---------------------------------------------------------------------------|
F|---------------------------------------------------------------------------|
C|--0~~----0~~--------0~~------5---2-----------------------------------------|
G|--0~~----0~~--------0~~-----8-8-3-3----------------------------------------|
C|--0~~000-0~~0-00-0000~~000-0-----------------------------------------------|


  

D|---------------------------------------------------------------------------|
A|---------------------------------------------------------------------------|
F|---3-----------------------------------------------------------------------|
C|--7-7--3-------------------------------------------------------------------|
G|------7-7------------------------------------------------------------------|
C|---------------------------------------------------------------------------|


  Bridge 2

  (Same as the bridge 1 besides the building up for the chorus just let the last chord ring)





  Chorus 2 guitar 1

  (Same as the first chorus)
D|---------------------------------------------------------------------------|
A|---------------------------------------------------------------------------|
F|----------10--------------------------------------------10-----------------|
C|--10------8------14------12------15------14------10-----8------14----------|
G|--8-------8------10------12------12------10------8------8------10----------|
C|--8-------8------10------12------12------10------8------8------10----------|




D|---------------------------------------------------------------------------|
A|---------------------------------------------------------------------------|
F|---------------------------------------------------------------------------|
C|--------------------------------12121212~----------------------------------|
G|--------------------------------10101010~----------------------------------|
C|--12-0-0-0-0-00-00--000-0-0-0-0-10101010~----------------------------------|




   Chorus 2 guitar 2
D|---------------------------------------------------------------------------|
A|---------------------------------------------------------------------------|
F|-----------------14~12~----------------------------------------------------|
C|-10~~~15~14b~12~~------12~~15~14b-----------------------------12121212~----|
G|--------------------------------------------------------------10101010~----|
C|----------------------------------12-0-0-0-0-00-00--000-0-0-0-10101010~----|



D|---------------------------------------------------------------------------|
A|---------------------------------------------------------------------------|
F|------14~12----14~15---14~12~----------------------------------------------|
C|-12~~~-----12~~-----15~-----------------------------------12121212~--------|
G|----------------------------------------------------------10101010~--------|
C|------------------------------12-0-0-0-0-00-00--000-0-0-0-10101010~--------|



  Outro guitar 1

D|---------------------------------------------------------------------------| (x2)
A|---------------------------------------------------------------------------|
F|---------------------------------------------------------------------------|
C|--333333333-3--3333\5555555000000000-0--5---2------------------------------|
G|--111111111-1--1111\3333333000000000-0-8-8-3-3-----------------------------|
C|---------------------------------------------------------------------------|



  Melody

D|---------------------------------------------------------------------------|
A|---------------------------------------------------------------------------|
F|--10-9--5p7------10-9--5p7~------------------------------------------------|
C|-----------5p7-------------------------------------------------------------|
G|--------------3p5----------------------------------------------------------|
C|---------------------------------------------------------------------------|

   (The melody continues until the end of the song)


   Outro guitar 2

D|---------------------------------------------------------------------------|
A|---------------------------------------------------------------------------|
F|---------------------------------------------------------------------------|
C|--333333333-3--3333\5555555000000000-0--5---2------------------------------|
G|--111111111-1--1111\3333333000000000-0-8-8-3-3-----------------------------|
C|---------------------------------------------------------------------------|

  (This riff continues until the end of the song)
Добавлено: 27.09.2013
Вам также может быть интересно:
Другие материалы по этой песне:
  • Аккорды и текст

Страница создана 27.09.2013
http://primanota.ru/atmosfear/huorglass-chords.htm
Привет, Гость.
Предлагаем пройти революционный курс по гитаре.
Подарок от PrimaNota.Ru, забирай!