PrimaNota.ru - самый крупный в мире бесплатный архив песенных текстов, аккордов, табулатур и нот


Atlas Losing Grip - Closure - таба, видео

Регистрация Запомнить меня
Войти через:  Facebook Google Twitter Vk Yandex Mail.ru

Atlas Losing Grip - Closure - таба, видео

Печатать
Просмотров: 73
Уроки эстрадного вокала в Санкт-Петербурге
-------------------------------------------------------------------------------
                             CLOSURE - Atlas Losing Grip
-------------------------------------------------------------------------------
Tabbed by: StanOctps

Tuning: Half-Step Down

e|---3---------------------------------------------2---3---------------------|
B|-----------0---1-------1-0-----------3---3-------------------0---1---------|
G|-------0-------------2-----------------------4-----------0-------------2---|
D|-------------------2-------------0-----------------------------------2-----|
A|---------------0-------------------------2-----------------------0---------|
E|---0-------------------------3-----------------------0---------------------|

e|-------------------3-----------3---3---------------------------------3-----|
B|-----1-0-----------------------------------0---1-------1-0-----------------|
G|---------------------------------------0-------------2---------------------|
D|---------------0-----------0-----------------------2-------------0---------|
A|-----------------------------------------------0---------------------------|
E|-----------3-----------3-----------0-------------------------3-------------|

e|----------2---3---------------------------------3--------------------------|
B|--3-------------------0---1-------1-0---------------3---5---7--------------|
G|------4-----------0-------------2------------------------------------------|
D|------------------------------2-------------0------------------------------|
A|--2-----------------------0-------------------------2---3---5--------------|
E|--------------0-------------------------3----------------------------------|

Добавлено: 10.12.2015
Вам также может быть интересно:
Другие материалы по этой песне:
  • Аккорды и текст

Страница создана 10.12.2015
http://primanota.ru/atlas-losing-grip/closure-chords.htm
Привет, Гость.
Предлагаем пройти революционный курс по гитаре.
Подарок от PrimaNota.Ru, забирай!