PrimaNota.ru - самый крупный в мире бесплатный архив песенных текстов, аккордов, табулатур и нот


Atlantis - Forbidden Planet - бас-таба, видео

Регистрация Запомнить меня
Войти через:  Facebook Google Twitter Vk Yandex Mail.ru

Atlantis - Forbidden Planet - бас-таба, видео

Печатать
Просмотров: 82
Уроки эстрадного вокала в Санкт-Петербурге
-------------------------------------------------------------------------------
			     Forbidden Planet - ATLANTIS
-------------------------------------------------------------------------------
Tabbed by: Derek Gardner
E-mail:

Tuning: Drop d

Intro
G|-----------------------------------------------------------------------------|
D|-----------------------------------------------------------------------------|
A|-5555---------------------5555------------------------5h7--------------------|
D|-------7777--9999--5555---------7777--9999--5555-5h7-------------------------|

G|-----------------------------------------------------------------------------|
D|-----------------------------------------------------------------------------|
A|-5555------------------------------------------------------------------------|
D|-------7777--9999--5555------------------------------------------------------|

G|---------------------------------------------------------------------------|
D|---------------------------------------------------------------------------|
A|-5------------7x16----9x16-------------------------------------------------|
D|---------------------------------------------------------------------------|

Chorus
G|-----------------------------------------------------------------------------|
D|-----------------------------------------------------------------------------|
A|-5555------------------------------------------------------------------------|
D|-------7777--99---9-9\555----------------------------------------------------|x2

G|-----------------------------------------------------------------------------|
D|-----------------------------------------------------------------------------|
A|-55555555--------------------------------------------------------------------|
D|-----------77777777-99999999-55555555----------------------------------------|x2

Intro
G|-----------------------------------------------------------------------------|
D|-----------------------------------------------------------------------------|
A|-5555------------------------------------------------------------------------|
D|-------7777--9999--5555------------------------------------------------------|x2

Verse 2
G|---------------------------------------------------------------------------|
D|---------------------------------------------------------------------------|
A|-5------7----7-8-9----12-- ------------------------------------------------|
D|---------------------------------------------------------------------------|

PreChorus (second time around)
G|---------------------------------------------------------------------------|
D|---------------------------------------------------------------------------|
A|---------------------------------------------------------------------------|
E|-12\0----------------------------------------------------------------------|

Chorus
G|-----------------------------------------------------------------------------|
D|-----------------------------------------------------------------------------|
A|-5555------------------------------------------------------------------------|
D|-------7777--99---9-9\555----------------------------------------------------|x2

G|-----------------------------------------------------------------------------|
D|-----------------------------------------------------------------------------|
A|-55555555--------------------------------------------------------------------|
D|-----------77777777-99999999-55555555----------------------------------------|x2

Bridge
G|-----------------------------------------------------------------------------|
D|-----------------------------------------------------------------------------|
A|-----------------------------------------------------------------------------|
D|-9----7----5----5--------9----7----5----5------------------------------------|

G|-----------------------------------------------------------------------------|
D|---12---11---9-7-----------12---11---9-7-------------------------------------|
A|--9----7----5----7--------9----7----5----7/0---------------------------------|
E|-9----7----5-------------9----7----5-----------------------------------------|

Chorus
G|-----------------------------------------------------------------------------|
D|-----------------------------------------------------------------------------|
A|-----------------------------------------------------------------------------|
D|-------------99---9-9\555----------------------------------------------------|x2

G|-----------------------------------------------------------------------------|
D|-----------------------------------------------------------------------------|
A|-5555------------------------------------------------------------------------|
D|-------7777--99---9-9\555----------------------------------------------------|x2

G|-----------------------------------------------------------------------------|
D|-----------------------------------------------------------------------------|
A|-55555555--------------------------------------------------------------------|
D|-----------77777777-99999999-55555555----------------------------------------|x2

G|-----------------------------------------------------------------------------|
D|-----------------------------------------------------------------------------|
A|-----------------------------------------------------------------------------|
D|-0000--7777--99---9-9\555----------------------------------------------------|x2

G|-----------------------------------------------------------------------------|
D|-----------------------------------------------------------------------------|
A|-55555555--------------------------------------------------------------------|
D|-----------77777777-99999999-55555555----------------------------------------|x2


| /  slide up
| \  slide down
| h  hammer-on
| p  pull-off
| ~  vibrato
| +  harmonic
| x  Mute note
===============================================================================
Добавлено: 25.03.2014
Другие материалы по этой песне:
  • Аккорды и текст

Страница создана 25.03.2014
http://primanota.ru/atlantis/forbidden-planet-chords.htm
Привет, Гость.
Предлагаем пройти революционный курс по гитаре.
Подарок от PrimaNota.Ru, забирай!