PrimaNota.ru - самый крупный в мире бесплатный архив песенных текстов, аккордов, табулатур и нот


Atlantis - Argyle Avenue - бас-таба, видео

Регистрация Запомнить меня
Войти через:  Facebook Google Twitter Vk Yandex Mail.ru

Atlantis - Argyle Avenue - бас-таба, видео

Печатать
Просмотров: 92
Уроки эстрадного вокала в Санкт-Петербурге
-------------------------------------------------------------------------------
			     Argyle Avenue - ATLANTIS
-------------------------------------------------------------------------------
Tabbed by: Derek Gardner
E-mail:

Tuning: Drop D

Intro Guitars (w/Vocals)

Intro Bass
G|-----------------------------------------------------------------------------|
D|-----------------------------------------------------------------------------|
A|-----------------------------------------------------------------------------|
D|-44-44-4/6-6-6666------------------------------------------------------------|x4

G|-----------------------------------------------------------------------------|
D|-----------------------------------------------------------------------------|
A|-----------------------------------------------------------------------------|
D|-44-44-4/6-----6-------------------------------------------------------------|x4

Verse 1
G|-----------------------------------------------------------------------------|
D|-----------------------------------------------------------------------------|
A|-----------------------------------------------------------------------------|
D|-4444444/6-6666666-9999999\4-4444444-----------------------------------------|x4

Chorus
G|-----------------------------------------------------------------------------|
D|-----------------------------------------------------------------------------|
A|-----------------------------------------------------------------------------|
D|-4-4-444/6-6-6666/9-9-999\8-8-8888-------------------------------------------|

G|-----------------------------------------------------------------------------|
D|-----------------------------------------------------------------------------|
A|---------------------------9-9-9999------------------------------------------|
D|-4-4-444/6-6-6666/9-9-999----------------------------------------------------|

G|-----------------------------------------------------------------------------|
D|-----------------------------------------------------------------------------|
A|-----------------------------------------------------------------------------|
D|-4-4-444/6-6-6666/9-9-999\8-8-8888-------------------------------------------|

G|-----------------------------------------------------------------------------|
D|-----------------------------------------------------------------------------|
A|-----------------------------------------------------------------------------|
D|-4-4-444/6-6-6666/8-8-888/-9-9-9999------------------------------------------|

Intro
G|-----------------------------------------------------------------------------|
D|-----------------------------------------------------------------------------|
A|-----------------------------------------------------------------------------|
D|-44-44-4/6-6-6666------------------------------------------------------------|x4

G|-----------------------------------------------------------------------------|
D|-----------------------------------------------------------------------------|
A|-----------------------------------------------------------------------------|
D|-44-44-4/6-----6-------------------------------------------------------------|x4

Verse 2 Guitars

Verse 2 Bass (comes in with drums)
G|-----------------------------------------------------------------------------|
D|-----------------------------------------------------------------------------|
A|--------------------------9--------------------------------------------------|
D|-4444----6666----9999--------------------------------------------------------|

G|-----------------------------------------------------------------------------|
D|-----------------------------------------------------------------------------|
A|--------------------------9----9999------------------------------------------|
D|-4444----6666----9999--------------------------------------------------------|

Chorus
G|-----------------------------------------------------------------------------|
D|-----------------------------------------------------------------------------|
A|-----------------------------------------------------------------------------|
D|-4-4-444/6-6-6666/9-9-999\8-8-8888-------------------------------------------|

G|-----------------------------------------------------------------------------|
D|-----------------------------------------------------------------------------|
A|---------------------------9-9-9999------------------------------------------|
D|-4-4-444/6-6-6666/9-9-999----------------------------------------------------|

G|-----------------------------------------------------------------------------|
D|-----------------------------------------------------------------------------|
A|-----------------------------------------------------------------------------|
D|-4-4-444/6-6-6666/9-9-999\8-8-8888-------------------------------------------|

G|-----------------------------------------------------------------------------|
D|-----------------------------------------------------------------------------|
A|-----------------------------------------------------------------------------|
D|-4-4-444/6-6-6666/8-8-888/-9-9-9999------------------------------------------|

Bridge (vocals & guitar Intro)
G|-----------------------------------------------------------------------------|
D|-----------------------------------------------------------------------------|
A|-----------------------------------------------------------------------------|
D|-1--22----------------------------1-22---------------------------------------|
(drums)
G|-----------------------------------------------------------------------------|
D|-----------------------------------------------------------------------------|
A|-----------------------------------------------------------------------------|
D|-11-11/2x30-----------------------11-11/22222222/44444444/66666666-----------|x2

Chorus
G|-----------------------------------------------------------------------------|
D|-----------------------------------------------------------------------------|
A|-----------------------------------------------------------------------------|
D|-4-4-444/6-6-6666/9-9-999\8-8-8888-------------------------------------------|

G|-----------------------------------------------------------------------------|
D|-----------------------------------------------------------------------------|
A|---------------------------9-9-9999------------------------------------------|
D|-4-4-444/6-6-6666/9-9-999----------------------------------------------------|

G|-----------------------------------------------------------------------------|
D|-----------------------------------------------------------------------------|
A|-----------------------------------------------------------------------------|
D|-4-4-444/6-6-6666/9-9-999\8-8-8888-------------------------------------------|

G|-----------------------------------------------------------------------------|
D|-----------------------------------------------------------------------------|
A|-----------------------------------------------------------------------------|
D|-4-4-444/6-6-6666/8-8-888/-9-9-9999------------------------------------------|

Outro (Same as Intro)
G|-----------------------------------------------------------------------------|
D|-----------------------------------------------------------------------------|
A|-----------------------------------------------------------------------------|
D|-44-44-4/6-6-6666------------------------------------------------------------|x8


| /  slide up
| \  slide down
| h  hammer-on
| p  pull-off
| ~  vibrato
| +  harmonic
| x  Mute note
===============================================================================
Добавлено: 03.04.2014
Вам также может быть интересно:
Другие материалы по этой песне:
  • Аккорды и текст

Страница создана 03.04.2014
http://primanota.ru/atlantis/argyle-avenue-chords.htm
Привет, Гость.
Предлагаем пройти революционный курс по гитаре.
Подарок от PrimaNota.Ru, забирай!