PrimaNota.ru - самый крупный в мире бесплатный архив песенных текстов, аккордов, табулатур и нот


Atlanta Rhythm Section - Large Time - таба, видео

Регистрация Запомнить меня
Войти через:  Facebook Google Twitter Vk Yandex Mail.ru

Atlanta Rhythm Section - Large Time - таба, видео

Печатать
Просмотров: 138
-------------------------------------------------------------------------------
1.                           Large Time-Atlanta Rhythm Section
-------------------------------------------------------------------------------
Tabbed by: Duane Baldwin
Email: duane&julie@gmail.com

Tuning: EADGBE

Intro
e|--------------------------------------------------------------|
B|-------5br-------------5br-------5br--------------------------|
G|-------5br-------------5br-------5br------5--7br--5-----------|
D|--0h7-------7--5--5h7-------0h7-------7--------------7--------|
A|--0---------0--0--0-0-------0---------0-----------------12\5--|
E|--------------------------------------------------------12\5--|

e|------------------------------------------------------------|
B|-------5br-------------5br-------5br------------------------|
G|-------5br-------------5br-------5br------5-----7br--5------|
D|--0h7-------7--5--5h7-------0h7-------7------7----------7---|
A|--0---------0--0--0-0-------0---------0---------------------|
E|------------------------------------------------------------|

Verse                         Play 3x
e|--5---------------------------------------|
B|--5---------------------------------------|
G|-----7br--5--------------0----------2-----|
D|-------------7--0--1--2-----1p0-----2-----|
A|---------------------------------3--------|
E|------------------------------------------|

e|--5----------------------------------------|
B|--5----------------------------------------|
G|-----7br--5--------------0-----------------|
D|-------------7--0--1--2-----1p0-----2--2---|
A|---------------------------------3--0--0---|
E|-------------------------------------------|

Chorus                                       * Slight downward bend
e|-------------------------------------|-----------------------------------|
B|--------5-------------------------5--|--7--*5br--------------------------|
G|--------5--------5--------7-------5--|--7--*5br--2--0--------------------|
D|-----------------5--------7----------|----------------2--1--0--------2---|
A|--6--7-----6--7-----8--9-----6--7----|-------------------------3--0------|
E|-------------------------------------|-----------------------------------|

e|-----------2--2--0--------------------------------|
B|-----------0--0--0--------------------------------|
G|-----------2--2--2-----------------------------2--|
D|-----------1--1--1--0--1--2-----------2--------2--|
A|--0--1--2--2--2--2-----------------------3--4-----|
E|-----------------------------0--3--4--------------|



e|--5---------------------------------------|
B|--5---------------------------------------|
G|-----7br--5--------------0----------2-----|
D|-------------7--0--1--2-----1p0-----2-----|
A|---------------------------------3--------|
E|------------------------------------------|

e|--5------------------------------------|--------------------------|
B|--5------------------------------------|--------------------------|
G|-----7br--5--------------0-------------|-----------0-----------2--|
D|-------------7--0--1--2-----1p0--------|--0--1--2-----1p0------2--|
A|---------------------------------3--0--|-------------------3------|
E|---------------------------------------|--------------------------|

2nd Verse                     Play 3x
e|--5---------------------------------------|
B|--5---------------------------------------|
G|-----7br--5--------------0----------2-----|
D|-------------7--0--1--2-----1p0-----2-----|
A|---------------------------------3--------|
E|------------------------------------------|

e|--5----------------------------------------|
B|--5----------------------------------------|
G|-----7br--5--------------0-----------------|
D|-------------7--0--1--2-----1p0-----2--2---|
A|---------------------------------3--0--0---|
E|-------------------------------------------|

Chorus
e|-------------------------------------|----------------------------------|
B|--------5-------------------------5--|--7--5br--------------------------|
G|--------5--------5--------7-------5--|--7--5br--2--0--------------------|
D|-----------------5--------7----------|----------------2--1--0--------2--|
A|--6--7-----6--7-----8--9-----6--7----|-------------------------3--0-----|
E|-------------------------------------|----------------------------------|

e|-----------2--2--0--------------------------------|
B|-----------0--0--0--------------------------------|
G|-----------2--2--2--------------------------------|
D|-----------1--1--1--0--1--2-----------2-----------|
A|--0--1--2--2--2--2-----------------------3--4--0--|
E|-----------------------------0--3--4--------------|

Bridge                                         Play 2x
e|--------------------------------------------------------------|
B|-------5br-------------5br-------5br--------------------------|
G|-------5br-------------5br-------5br------5--7br--5-----------|
D|--0h7-------7--5--5h7-------0h7-------7--------------7--------|
A|--0---------0--0--0-0-------0---------0-----------------------|
E|--------------------------------------------------------12\5--|

e|-------------------------------------------------------------------|
B|-------5br-------------5br-------5br------8--7--5------------------|
G|-------5br-------------5br-------5br------9--7--5------------------|
D|--0h7-------7--5--5h7-------0h7-------7-------------5--7--5--7--7--|
A|--0---------0--0--0-0-------0---------0----------------------------|
E|-------------------------------------------------------------------|

e|------------------------------------------|---------------------------|
B|--8--7--5----------------5br--------------|--8--7--5------------------|
G|--9--7--5----------------5br--------------|--9--7--5------------------|
D|----------5--7--5--7----------7--5--7--7--|------------5--7--5--7--7--|
A|---------------------7--------------------|---------------------------|
E|------------------------------------------|---------------------------|


e|----------------------------------------------------|
B|--8--7--5--------------------------------------8----|
G|--9--7--5----------------------------0---------7----|
D|-----------5--7--5--7-------0--1--2-----1p0----6----|
A|-----------------------7--------------------3--7----|
E|-----------------------------------------------0----|


e|--------------------------|
B|--------------------------|
G|-----------0--------------|
D|--0--1--2-----1p0----2----|
A|------------------3--0----|
E|--------------------------|

3rd Verse                      Play 3x
e|--5---------------------------------------|
B|--5---------------------------------------|
G|-----7br--5--------------0----------2-----|
D|-------------7--0--1--2-----1p0-----2-----|
A|---------------------------------3--------|
E|------------------------------------------|

e|--5----------------------------------------|
B|--5----------------------------------------|
G|-----7br--5--------------0-----------------|
D|-------------7--0--1--2-----1p0-----2--2---|
A|---------------------------------3--0--0---|
E|-------------------------------------------|


Chorus
e|-------------------------------------|----------------------------------|
B|--------5-------------------------5--|--7--5br--------------------------|
G|--------5--------5--------7-------5--|--7--5br--2--0--------------------|
D|-----------------5--------7----------|----------------2--1--0--------2--|
A|--6--7-----6--7-----8--9-----6--7----|-------------------------3--0-----|
E|-------------------------------------|----------------------------------|

e|-----------2--2--0--------------------------------|
B|-----------0--0--0--------------------------------|
G|-----------2--2--2--------------------------------|
D|-----------1--1--1--0--1--2-----------2-----------|
A|--0--1--2--2--2--2-----------------------3--4--0--|
E|-----------------------------0--3--4--------------|

e|--5---------------------------------------|
B|--5---------------------------------------|
G|-----7br--5--------------0----------2-----|
D|-------------7--0--1--2-----1p0-----2-----|
A|---------------------------------3--------|
E|------------------------------------------|

e|--5------------------------------------|--------------------------|
B|--5------------------------------------|--------------------------|
G|-----7br--5--------------0-------------|-----------0-----------2--|
D|-------------7--0--1--2-----1p0--------|--0--1--2-----1p0------2--|
A|---------------------------------3--0--|-------------------3------|
E|---------------------------------------|--------------------------|

4th Verse                       Play 3x
e|--5---------------------------------------|
B|--5---------------------------------------|
G|-----7br--5--------------0----------2-----|
D|-------------7--0--1--2-----1p0-----2-----|
A|---------------------------------3--------|
E|------------------------------------------|

e|--5----------------------------------------|
B|--5----------------------------------------|
G|-----7br--5--------------0-----------------|
D|-------------7--0--1--2-----1p0-----2--2---|
A|---------------------------------3--0--0---|
E|-------------------------------------------|

e|-------------------------------------|----------------------------------|
B|--------5-------------------------5--|--7--5br--------------------------|
G|--------5--------5--------7-------5--|--7--5br--2--0--------------------|
D|-----------------5--------7----------|----------------2--1--0--------2--|
A|--6--7-----6--7-----8--9-----6--7----|-------------------------3--0-----|
E|-------------------------------------|----------------------------------|
                                       *Pinch harmonic
e|-----------2--2--0---------------------------------|
B|-----------0--0--0---------------------------------|
G|-----------2--2--2---------------------------------|
D|-----------1--1--1--0--1--2-----------*2-----------|
A|--0--1--2--2--2--2-----------------------3--4--0---|
E|-----------------------------0--3--4---------------|

Bridge/outro             * Pinch harmonic second time    Play 2x
e|---------------------------------------------------------------|
B|-------5br-------------5br-------5br---------------------------|
G|-------5br-------------5br-------5br------5--*7br--5-----------|
D|--0h7-------7--5--5h7-------0h7-------7--------------7---------|
A|--0---------0--0--0-0-------0---------0------------------------|
E|--------------------------------------------------------12\5---|

e|------------------------------------------------------------------|
B|-------5br-------------5br-------5br------8--7--5-----------------|
G|-------5br-------------5br-------5br------9--7--5-----------------|
D|--0h7-------7--5--5h7-------0h7-------7-------------5--7--5--7----|
A|--0---------0--0--0-0-------0---------0---------------------------|
E|------------------------------------------------------------------|

e|-------------------------------------|--------------------------|
B|--8--7--5-----------5br--------------|--8--7--5-----------------|
G|--9--7--5-----------5br--------------|--9--7--5-----------------|
D|-----------7--5----------7--5--7--7--|------------5--7--5--7----|
A|-----------------7-------------------|--------------------------|
E|-------------------------------------|--------------------------|

e|-----------------------------------------|-------------------------|
B|--8--7--5--------------5br---------------|-------------------------|
G|--9--7--5--------------5br---------------|-----------0----------2--|
D|-----------7--5--7--7--------7--5--7-----|--0--1--2-----1p0-----2--|
A|--------------------------------------7--|-------------------3--0--|
E|-----------------------------------------|-------------------------|

| /  slide up
| \  slide down
| h  hammer-on
| p  pull-off
| ~  vibrato
| +  harmonic
| x  Mute note
| br Bend release
===============================================================================
1st verse

(A) N.C.
Well I'm glad to be livin in the U.S.A. and playin for the ARS

it may not be your cup of tea but I can guarantee you this

Chorus
                C     D C
Well have us a large 
         D    C             A
time a knock down drag out ball 
        B        E                 A
have us a large  large time ya'll

2nd Verse

(A) N.C.
We played Macon Georgia with Lynyrd Skynrnd it was a rock n' roll hoe down

Van Zant let that free bird fly don't cha know he wasn't foolin' around

Chorus
              C         D C
We had us a large 
                    D     C             A
time you should of heard those guitars squall
          B        E                   A
we had us a large real large time ya'll

Sure had us a ball

Bridge

A C A C A C A

G D C A E9

3rd Verse

(A) N.C.
Well I'm glad to be livin in the U.S.A. and playin for the ARS

it may not be your cup of tea but I can guarantee you this

Chorus
                C     D C
Well have us a large 
         D    C             A
time a knock down drag out ball 
        B        E                 A
have us a large  large time ya'll

4rth Verse

(A) N.C.
We played Macon Georgia with Lynyrd Skynrnd it was a rock n' roll hoe down

Van Zant let that free bird fly don't cha know he wasn't foolin' around

Chorus
              C         D C
We had us a large 
                    D     C             A
time you should of heard those guitars squall
          B        E                   A
we had us a large real large time ya'll

Bridge

A C A C A C A

G D C A 
     That's all
Добавлено: 15.03.2012
Другие материалы по этой песне:

Страница создана 15.03.2012
http://primanota.ru/atlanta-rhythm-section/large-time-chords.htm
Привет, Гость.
Предлагаем пройти революционный курс по гитаре.
Подарок от PrimaNota.Ru, забирай!