PrimaNota.ru - самый крупный в мире бесплатный архив песенных текстов, аккордов, табулатур и нот


Atlanta Rhythm Section - Higher - таба, видео

Регистрация Запомнить меня
Войти через:  Facebook Google Twitter Vk Yandex Mail.ru

Atlanta Rhythm Section - Higher - таба, видео

Печатать
Просмотров: 155
-------------------------------------------------------------------------------
                             Higher - Atlanta Rhythm Section
                                     Quinella-1981 
                     Words and Music by Buddy Bluie and Ronnie Hammond
-------------------------------------------------------------------------------
Tabbed by: Duane Baldwin
E-mail: duaneandjulie@gmail.com

Tuning: Standard

Guitar I (Over driven tone)

Intro

    e   e   e   e   e   e   e  e    e   e   e   e   e   e   e   e     e   e   e   e   e   e   e   e
e|--------------------------------|--------------------------------|---------------------------------|
B|--------------------------------|--------------------------------|---------------------------------|
G|--------------------------------|--------------------------------|---------------------------------|
D|--------------------------------|--------------------------------|---------------------------------|
A|--------------------------------|-------------------------0---2--|--3---3---3---3---3---3---3---3--|
E|--0---0---0---0---0--0---0---0--|--0---0---0---0---0--0----------|---------------------------------|

    e   e   e   e   e   e   e   e     e   e   e   e   e   e   e   e     e   e   e   e   e   e   e   e  

e|---------------------------------|---------------------------------|--------------------------------|
B|---------------------------------|---------------------------------|--------------------------------|
G|---------------------------------|---------------------------------|--------------------------------|
D|---------------------------------|---------------------------------|--------------------------------|
A|--3---3---2---2---0---0----------|---------------------------------|-------------------------0---2--|
E|--------------------------3---2--|--0---0---0---0---0---0---0---0--|--0---0---0---0---0--0----------|

    e   e   e   e   e   e   e  e      e   e   e   e   e   e   e   e     
e|---------------------------------|---------------------------------|
B|---------------------------------|---------------------------------|
G|---------------------------------|---------------------------------|
D|---------------------------------|---------------------------------|
A|--3---3---3---3---3---3---3---3--|--3---3---2---2---0---0----------|
E|---------------------------------|--------------------------3---2--|


1st Verse

    e   e  qr  e   e  qr      e  qr   e  e   e  er   er  e   qr    e   e   qr     e  .qr   e    e  qr
e|----------------------|-----------------------|---------------------------|----------------------|
B|----------------------|-----------------------|---------------------------|----------------------|
G|------9------9---9----|--9-------9---9---9\---|-----5---------5----5------|--5--------5----5-----|
D|------9------9---9----|--9-------9---9---9\---|-----5---------5----5------|--5--------5----5-----|
A|------7------7---7----|--7-------7---7---7\---|-----3---------3----3------|--3--------3----3-----|
E|--0-------------------|-----------------------|---------------------------|----------------------|


    e   e  qr  e   e  qr   e   e  qr   e   e qr   er  e  qr  e   .e .er     q   er   e    e  .qr
e|----------------------|----------------------|-----------------------|------------------------|
B|----------------------|----------------------|-----------------------|--3---------------------|
G|------9------9---9----|------9-------9---9---|-----5-------5---5-----|--3--------5----5-------|
D|------9------9---9----|------9-------9---9---|-----5-------5---5-----|-----------5----5-------|
A|------7------7---7----|------7-------7---7---|-----3-------3---3-----|-----------3----3-------|
E|--0-------------------|--0-------------------|-----------------------|------------------------|


1st Chorus

    e   e  qr  e   e qr   e   e   qr  e  e  qr  er  e  qr   e   e   er  e    q   e   q   e   q
e|----------------------|----------------------|---------------------------|----------------------|
B|----------------------|----------------------|---------------------------|--3-------3-------3---|
G|------9------9---9----|------9------9---9----|-----5-------5---5---------|--3-------3-------3---|
D|------9------9---9----|------9------9---9----|-----5-------5---5------5--|------5-------5-------|
A|------7------7---7----|------7------7---7----|-----3-------3---3---------|----------------------|
E|--0-------------------|--0-------------------|---------------------------|----------------------|

    e   e   qr  e   e qr   e   e  qr   e   e qr   er  e   qr   e   e  er  e    q   e   q   e   q
e|----------------------|----------------------|----------------------------|----------------------|
B|----------------------|----------------------|----------------------------|--3-------3-------3---|
G|------9-------9---9---|------9-------9---9---|-----5--------5---5---------|--3-------3-------3---|
D|------9-------9---9---|------9-------9---9---|-----5--------5---5------5--|------5-------5-------|
A|------7-------7---7---|------7-------7---7---|-----3--------3---3---------|----------------------|
E|--0-------------------|--0-------------------|----------------------------|----------------------|


2nd Verse

    e   e   qr  e   e  qr   e  qr   e   e qr   er  e   qr    e  e   qr    er  e   qr   e    e  qr
e|-----------------------|-------------------|--------------------------|--------------------------|
B|-----------------------|-------------------|--------------------------|---------------------------|
G|------9-------9---9----|--9-------9---9----|-----5---------5---5------|-----5--------5----5-------|
D|------9-------9---9----|--9-------9---9----|-----5---------5---5------|-----5--------5----5-------|
A|------7-------7---7----|--7-------7---7----|-----3---------3---3------|-----3--------3----3-------|
E|--0--------------------|-------------------|--------------------------|---------------------------|


    e   e   qr  e   e  qr   e  qr   e   e qr   er  e   qr    e  .e  .er    q   er   e    e  .qr
e|-----------------------|-------------------|--------------------------|------------------------|
B|-----------------------|-------------------|--------------------------|--3---------------------|
G|------9-------9---9----|--9-------9---9----|-----5---------5---5------|--3--------5----5-------|
D|------9-------9---9----|--9-------9---9----|-----5---------5---5------|-----------5----5-------|
A|------7-------7---7----|--7-------7---7----|-----3---------3---3------|-----------3----3-------|
E|--0--------------------|-------------------|--------------------------|------------------------|


2nd Chorus

    e   e  qr   h      e   e  qr  h    er  e  qr   e  e   er  e    q   e   q   e   q
e|------------------|----------------|---------------------------|----------------------|
B|------------------|----------------|---------------------------|--3-------3-------3---|
G|------9------9ph--|------9------9--|-----5-------5---5---------|--3-------3-------3---|
D|------9-----------|------9------9--|-----5-------5---5------5--|------5-------5-------|
A|------7-----------|------7------7--|-----3-------3---3---------|----------------------|
E|--0---------------|--0-------------|---------------------------|----------------------|


    e   e   qr  e   e qr   e   e  qr   e   e qr   er  e   qr   e  e  er  e     q   e   q   e   q
e|----------------------|----------------------|----------------------------|----------------------|
B|----------------------|----------------------|----------------------------|--3-------3-------3---|
G|------9-------9---9---|------9-------9---9---|-----5--------5---5---------|--3-------3-------3---|
D|------9-------9---9---|------9-------9---9---|-----5--------5---5------5--|------5-------5-------|
A|------7-------7---7---|------7-------7---7---|-----3--------3---3---------|----------------------|
E|--0-------------------|--0-------------------|----------------------------|----------------------|


Bridge


    e  qr   e  hr    e  qr   e  hr    e  qr   e  hr    e  qr   e  hr    e  qr   e  hr 
e|----------------|----------------|----------------|----------------|----------------|
B|----------------|----------------|----------------|----------------|----------------|
G|--7-------7-----|--7-------7-----|--9-------9-----|--9-------9-----|--7-------7-----|
D|--7-------7-----|--7-------7-----|--9-------9-----|--9-------9-----|--7-------7-----|
A|--5-------5-----|--5-------5-----|--7-------7-----|--7-------7-----|--5-------5-----|
E|----------------|----------------|----------------|----------------|----------------|


    e  qr   e  hr    e  qr   e  .qr   ete      e      e     e     e      e   e    e
e|----------------|------------------------|-----------------------------------------|
B|----------------|-------------------15---|--12------12---15----12------15-15---15--|
G|--7-------7-----|--5-------5--------14b--|--14pbr---15---14b---14pbr---12h14---12--|
D|--7-------7-----|--5-------5-------------|-----------------------------------------|
A|--5-------5-----|--3-------3-------------|-----------------------------------------|
E|----------------|------------------------|-----------------------------------------|


3rd Chorus

    h    qr   qtq    hr     qtq       .hr      qr   h     e   e      h  er  e  qth   er  e   qtw
e|----------------|--------------|-----------|--------------------|----------------|-------------|
B|----------------|--------------|-----------|-----10br---8---10--|----------------|-------------|
G|------------9---|---------9ph--|-----------|--------------------|--9------7---9--|-----7---9---|
D|--14------------|--------------|-----------|--------------------|----------------|-------------|
A|----------------|--------------|-----------|--------------------|----------------|-------------|
E|----------------|--------------|-----------|--------------------|----------------|-------------|


     q      q     q    q
e|------------------------|
B|--10b---10pbr---8---10--|
G|------------------------|
D|------------------------|
A|------------------------|
E|------------------------|


Main Solo


   .q    q     e      e      etw                    s e  .e   t h   e     e    e   e  hte
e|------------------------------|----------------|------------------6--|--5---3----------|
B|------------10ph--------------|----------------|--------8------------|----------5---5--|
G|--9b---9b----------9phbr---7--|----------------|--6/9-------7g4------|-----------------|
D|------------------------------|----------------|---------------------|-----------------|
A|------------------------------|----------------|---------------------|-----------------|
E|------------------------------|----------------|---------------------|-----------------|


    s  e    q   s e      q    s sts    qts    hte    s e  .e   s e   .qts   .e  .e  .e  .qts
e|----------------------------------|-------------|--------8----------11--|--------------7--|
B|---------10-----------------------|-------------|-----------------------|----------7------|
G|--9/11----------------11----------|-------------|--6/9-------9/12-------|------8----------|
D|--------------10/12---------------|--12---------|-----------------------|--9--------------|
A|---------------------------10/12--|---------9---|-----------------------|-----------------|
E|----------------------------------|-------------|-----------------------|-----------------|


      wth        e   e   q       .h      e   et.q       e   er      .q        .q    .qte
e|-----------|----------------|-------------------|-------------|---------------------------|
B|-----------|----------------|-------------------|-------------|--12-----------------------|
G|-----9-----|---9---7---9----|--10b-----7---9ph--|-----7\------|--14[1/4br---9---11[1/2br--|
D|-----------|----------------|-------------------|-----7\------|---------------------------|
A|-----------|----------------|-------------------|-------------|---------------------------|
E|-----------|----------------|-------------------|-------------|---------------------------|


   .q   e   .qt.h    e      etw              .q     s s s    s    e   e   e     e   e   e   hte
e|---------------|--------------|----------|---------------------------------|-----------------|
B|---------------|--------------|----------|---------------------------------|-----------------|
G|--9---11---12--|---11-----9b--|----------|--11---11p9h11--------9----------|-----------------|
D|---------------|--------------|----------|-----------------11-------9---7--|--9---7---9------|
A|---------------|--------------|----------|---------------------------------|--------------9--|
E|---------------|--------------|----------|---------------------------------|-----------------|


   er  e   e   hte     e   e  .e   sr   e   .q       w       
e|------------------|---------------------------|---------|
B|--------------10--|------------------10b---8--|---------|
G|------------------|--9---7---9----------------|----9----|
D|-----9---11-------|---------------------------|---------|
A|------------------|---------------------------|---------|
E|------------------|---------------------------|---------|


3rd Verse

   
    hr  er    q      e        w         .hr    q         w        .hr    s .e         w         wr
e|----------------------|------------|------------|-------------|--------------|-------------|-------|
B|-----------10pbr---8--|-----10-----|---------8--|-------------|--------------|-------------|-------|
G|----------------------|------------|------------|------9------|--------------|------9------|-------|
D|----------------------|------------|------------|-------------|--------7/9---|-------------|-------|
A|----------------------|------------|------------|-------------|--------------|-------------|-------|
E|----------------------|------------|------------|-------------|--------------|-------------|-------|


4th Chorus


    hr  er   e   qth     er     e  qth       hr          q    q  hth        hr          wr
e|-------------------|-----------------|-------------|----------------|-----------|-------------|
B|-------------------|----------8------|-------------|--10b---8-------|-----------|-------------|
G|-----------7----9--|--------------9--|-------------|------------9---|-----------|-------------|
D|-------------------|-----------------|-------------|----------------|-----------|-------------|
A|-------------------|-----------------|-------------|----------------|-----------|-------------|
E|-------------------|-----------------|-------------|----------------|-----------|-------------|


        w          q    e   e   q     e   e      h   er    s s  qth       e    e   q    er    e   .h
e|-------------|-----------------------------|---------------------|-----------------|---------------|
B|-------------|-----------------------------|---------------------|----10b---8------|--------3---3--|
G|-------------|--2br---0---2---2br---0---2--|------------------9--|--------------9--|--------3---3--|
D|------5------|-----------------------------|--2------------------|-----------------|---------------|
A|-------------|-----------------------------|---------------------|-----------------|---------------|
E|-------------|-----------------------------|------------2/9------|-----------------|---------------|


    e   e   q   e   e   e   eth   er    e   e   e   hte  e   qr     e    e    e    e    e   e   e   e
e|-----------------------------|------------------|-------------|---------------------------7---------|
B|--8---8-------8---8----------|-------8----------|------8------|--10b---8---10---8---10b-------8-----|
G|----------9-----------9---7--|-----------9---7--|--9----------|-----------------------------------9-|
D|-----------------------------|------------------|-------------|-------------------------------------|
A|-----------------------------|------------------|-------------|-------------------------------------|
E|-----------------------------|------------------|-------------|-------------------------------------|


    e   e   e   e   e   e   e   e   
e|----------------------------------|
B|--6-------------------------------|
G|------9---7-----------------------|
D|--------------9---8---7-----------|
A|--------------------------10---7--|
E|----------------------------------|


Qutro

    .q  q   e   q    .q   q   e   q      h    q     q       h   q   q       .q  q   e   q
e|-----------------|-----------------|------------------|----------------|-----------------|
B|-----------------|-----------------|------------------|---8------------|-----------------|
G|--9---9---7---9--|--9---9---7---9--|---9----7-----9---|--------9---7---|--9---9---7---9--|
D|-----------------|-----------------|------------------|----------------|-----------------|
A|-----------------|-----------------|------------------|----------------|-----------------|
E|-----------------|-----------------|------------------|----------------|-----------------|


   .q   q   e   q      h  q   q     h    q   q     .q  q   e   q     .q  q   e   q      h    q    q
e|-----------------|-------------|--------------|-----------------|-----------------|----------------|
B|--------------8--|-------------|--8-----------|--------------8--|-----------------|----------------|
G|--9---9---7------|---9--7---9--|-------9---7--|--9---9---7------|--9---9---7---9--|---9----7----9--|
D|-----------------|-------------|--------------|-----------------|-----------------|----------------|
A|-----------------|-------------|--------------|-----------------|-----------------|----------------|
E|-----------------|-------------|--------------|-----------------|-----------------|----------------|


    h   q   e   e    .q  q   e   q     .q   q   e   q     h    q     q      s .e   q     q      q     
e|-----------------|-----------------|-----------------|-----------------|---------------------------|
B|--8-------8------|-----------------|-----------------|-----------------|---------10----------------|
G|------9-------9--|--9---9---7---9--|--9---9---7---9--|---9----7-----9--|--9/12--------12b---12pbr--|
D|-----------------|-----------------|-----------------|-----------------|---------------------------|
A|-----------------|-----------------|-----------------|-----------------|---------------------------|
E|-----------------|-----------------|-----------------|-----------------|---------------------------|


     .q   q   .q      e      e     e    e     h      er   e   e    e    h 
e|----------------|--------------------------------|------------------------|
B|----------------|--------------------------------|------------------------|
G|--11------------|--14b---14pbr---11--------11ph--|-----12---14---12---14--|
D|-------11---14--|---------------------14---------|------------------------|
A|----------------|--------------------------------|------------------------|
E|----------------|--------------------------------|------------------------|


      hte      t  t  s    e   e      h   er   e   q     .q   q   e   q       h    q     q
e|--------------------------------|------------------|-------------------|-----------------|
B|--15brbrb---12h15p12------------|------------------|-------------------|-----------------|
G|-----------------------14---12--|-----------7---9--|--9---9---7---9ph--|---9----7-----9--|
D|--------------------------------|--14--------------|-------------------|-----------------|
A|--------------------------------|------------------|-------------------|-----------------|
E|--------------------------------|------------------|-------------------|-----------------|


    h   q   q      .q   hte     .q      hte     h   q   q       h     h       e   e   e   hte
e|-------------|------------|---------------|---------------|--------------|-----------------|
B|--8----------|------------|---------------|---------------|---8----------|-----------------|
G|------9---7--|---7----9---|---7-------9---|---9---7---9---|---------9----|--9-------7---9--|
D|-------------|------------|---------------|---------------|--------------|------9----------|
A|-------------|------------|---------------|---------------|--------------|-----------------|
E|-------------|------------|---------------|---------------|--------------|-----------------|


    e   e   e   hte  er  s s    q    s   s  .qte   s  s   hte     e        .q         hte
e|-----------------|----------------------------|---------------------|-------------------|
B|-----------------|------------11----------11--|---------11-----11/--|-------------------|
G|--9-------7---9--|-----9/12--------9/12-------|--9/12---------------|---11[1/2br----9---|
D|------9----------|----------------------------|---------------------|-------------------|
A|-----------------|----------------------------|---------------------|-------------------|
E|-----------------|----------------------------|---------------------|-------------------|


      .q       hte     q   q   q   s  s  etq     s s    hte    
e|------------------|-----------------------|---------------|
B|------------------|--------------------5--|-----------5---|
G|--11[1/2br----9---|------5---5---------5--|-----------5---|
D|------------------|------5---5---3/5------|----3/5--------|
A|------------------|--3---3---3------------|---------------|
E|------------------|-----------------------|---------------|


Outro Solo

      .q   e       e     .q      .q     e       e    .q      .q    e       s  t  t    s    e     e
e|---------------------------|---------------------------|------------------------------------------|
B|---15----15----------------|---15----15----------------|------------------------------------------|
G|---14b---14pbr---12--------|---14b---14pbr---12--------|--14b---14pbr----12h14p12--------12---14--|
D|----------------------14---|----------------------14---|----------------------------14------------|
A|---------------------------|---------------------------|------------------------------------------|
E|---------------------------|---------------------------|------------------------------------------|


    .h     q       .q     e      e    .q      .q     e       e    .q 
e|-------------|---------------------------|---------------------------|
B|-------------|---15----15----------------|---15----15----------------|
G|--------14\--|---14b---14pbr---12--------|---14b---14pbr---12--------|
D|--14----14\--|----------------------14---|----------------------14---|
A|-------------|---------------------------|---------------------------|
E|-------------|---------------------------|---------------------------|


    e     s   s  s   s     e    e     e    s  s    e 
e|-----------------------------------12----------------|
B|--15b---12h15p12------------------------15p12--------|
G|-------------------14---12---14b----------------14b--|
D|-----------------------------------------------------|
A|-----------------------------------------------------|
E|-----------------------------------------------------|


     e    s  s    e     e    s   s   e    e    s   s
e|--12-----------------12-----------------12----------|
B|-------15p12--------------15p12--------------15p12--|
G|---------------14b----------------14b---------------|
D|----------------------------------------------------|
A|----------------------------------------------------|
E|----------------------------------------------------|


     e     e    s  s    e     e    s   s    e    e
e|--------12-----------------12-----------------12--|
B|-------------15p12--------------15p12-------------|
G|--14b----------------14b----------------14b-------|
D|--------------------------------------------------|
A|--------------------------------------------------|
E|--------------------------------------------------|


     s  s    e     e    s  s    e     e    e    e       q     s   s  s   s   e    e    q
e|----------------12-----------------12-------------|--------------------------------------|
B|--15p12--------------15p12--------------12---15b--|--15b---12h15p12----------------------|
G|----------14b----------------14b------------------|-------------------14---12--------12--|
D|--------------------------------------------------|-----------------------------14-------|
A|--------------------------------------------------|--------------------------------------|
E|--------------------------------------------------|--------------------------------------|


    s     s    s   e     e    e   e    e     e    ete   e    e    e    .q    s  ste
e|---------------------------------------------------|-----------------------------|
B|--12-----------------------------------------------|-----------------------------|
G|-------12-----------------------12-----------------|------------12---------------|
D|------------12--------12---14--------14---12---14--|--12---14--------14---12h14--|
A|-----------------14--------------------------------|-----------------------------|
E|---------------------------------------------------|-----------------------------|


    s  s    q   s   s   q   s  s    ete   s  s    q    s  s    q    e
e|-------------------------------------|---------------------------------|
B|---------13----------11----------13--|---------11-----------13---13\---|
G|--9/12--------9/12--------9/12-------|--9/12---------9/12--------------|
D|-------------------------------------|---------------------------------|
A|-------------------------------------|---------------------------------|
E|-------------------------------------|---------------------------------|


      e     e      e   e   h        e    e    e     e    h 
e|-----------------------------|----------------------------|
B|---15br---12-----------------|--15br---15-----------------|
G|---------------14---12-------|--------------14---12-------|
D|-------------------------14--|------------------------14--|
A|-----------------------------|----------------------------|
E|-----------------------------|----------------------------|


     e     e    e    e     e    e     s  s    e 
e|------------------------------12----------------|
B|--15br---12------------------------15p12--------|
G|--------------14---12---14b----------------14b--|
D|------------------------------------------------|
A|------------------------------------------------|
E|------------------------------------------------|


     e    s  s    e     e    s   s   e    e    s   s
e|--12-----------------12-----------------12----------|
B|-------15p12--------------15p12--------------15p12--|
G|---------------14b----------------14b---------------|
D|----------------------------------------------------|
A|----------------------------------------------------|
E|----------------------------------------------------|


Beginning of fade out


     e     e    s  s    e     e    s   s    e    e
e|--------12-----------------12-----------------12--|
B|-------------15p12--------------15p12-------------|
G|--14b----------------14b----------------14b-------|
D|--------------------------------------------------|
A|--------------------------------------------------|
E|--------------------------------------------------|


     s  s    e     e    s  s    e    e     s  s    e     e    e     e   q     e   q
e|----------------12-----------------12---------------|-------------------------------|
B|--15p12--------------15p12--------------15p12---12--|-------------------------------|
G|----------14b----------------14b--------------------|--15---14---12---12---14---12--|
D|----------------------------------------------------|-------------------------------|
A|----------------------------------------------------|-------------------------------|
E|----------------------------------------------------|-------------------------------|


     .e    .e    .q    s   s     e       .e    .e    .q    s    s    e           w
e|--15b---15b---15b---12-------------|--15b---15b---15b---12-------------|------15--------|
B|-------------------------15---12---|-------------------------15---12---|----------------|
G|-----------------------------------|-----------------------------------|----------------|
D|-----------------------------------|-----------------------------------|----------------|
A|-----------------------------------|-----------------------------------|----------------|
E|-----------------------------------|-----------------------------------|----------------|


Guitar II ( Heavily Over driven tone)


Intro

    e   e   e   e   e   e   e  e    e   e   e   e   e   e   e   e     e   e   e   e   e   e   e   e
e|--------------------------------|--------------------------------|---------------------------------|
B|--------------------------------|--------------------------------|---------------------------------|
G|--------------------------------|--------------------------------|---------------------------------|
D|--------------------------------|--------------------------------|---------------------------------|
A|--------------------------------|-------------------------0---2--|--3---3---3---3---3---3---3---3--|
E|--0---0---0---0---0--0---0---0--|--0---0---0---0---0--0----------|---------------------------------|


    e   e   e   e   e   e   e   e     e   e   e   e   e   e   e   e     e   e   e   e   e   e   e   e  e|---------------------------------|---------------------------------|--------------------------------|
B|---------------------------------|---------------------------------|--------------------------------|
G|---------------------------------|---------------------------------|--------------------------------|
D|---------------------------------|---------------------------------|--------------------------------|
A|--3---3---2---2---0---0----------|---------------------------------|-------------------------0---2--|
E|--------------------------3---2--|--0---0---0---0---0---0---0---0--|--0---0---0---0---0--0----------|


    e   e   e   e   e   e   e  e      e   e   e   e   e   e   e   e     
e|---------------------------------|---------------------------------|
B|---------------------------------|---------------------------------|
G|---------------------------------|---------------------------------|
D|---------------------------------|---------------------------------|
A|--3---3---3---3---3---3---3---3--|--3---3---2---2---0---0----------|
E|---------------------------------|--------------------------3---2--|


1st Verse

    .q  e   e  .qr    .q   e  e  .qr    .q  e   e .qr     .q  e  e   .qr     .q   e   e   .qr
e|------------------|----------------|-----------------|-------------------|------------------|
B|------------------|----------------|-----------------|-------------------|------------------|
G|--9---9---9-------|--9---9---9-----|--5---5---5------|--5---5---5--------|--9---9---9-------|
D|--9---9---9-------|--9---9---9-----|--5---5---5------|--5---5---5--------|--9---9---9-------|
A|--7---7---7-------|--7---7---7-----|--3---3---3------|--3---3---3--------|--7---7---7-------|
E|------------------|----------------|-----------------|-------------------|------------------|


    .q  e   e  .q    .q   e   e  .qr     .q  e   e  .qr
e|-----------------|------------------|------------------|
B|-----------------|------------------|--3---------------|
G|--9---9---9------|--5---5---5-------|--3---5---5-------|
D|--9---9---9------|--5---5---5-------|------5---5-------|
A|--7---7---7------|--3---3---3-------|------3---3-------|
E|-----------------|------------------|------------------|


1st Chorus


    .q  e   e  .qr    .q   e  e  .qr    .q  e   e  qr  e     q   e   q   e     .q   e   e  .qr
e|------------------|----------------|--------------------|-----------------|------------------|
B|------------------|----------------|--------------------|--3-------3------|------------------|
G|--9---9---9-------|--9---9---9-----|--5---5---5---------|--3-------3------|--9---9---9-------|
D|--9---9---9-------|--9---9---9-----|--5---5---5------5--|------5-------5--|--9---9---9-------|
A|--7---7---7-------|--7---7---7-----|--3---3---3---------|-----------------|--7---7---7-------|
E|------------------|----------------|--------------------|-----------------|------------------|


   .q   e  e  .qr    .q  e   e  qr  e     q   e   q   e     .q   e   e  .qr
e|----------------|--------------------|-----------------|------------------|
B|----------------|--------------------|--3-------3------|------------------|
G|--9---9---9-----|--5---5---5---------|--3-------3------|--9---9---9-------|
D|--9---9---9-----|--5---5---5------5--|------5-------5--|--9---9---9-------|
A|--7---7---7-----|--3---3---3---------|-----------------|--7---7---7-------|
E|----------------|--------------------|-----------------|------------------|



2nd Verse


    .q  e   e  .qr    .q   e  e  .qr    .q  e   e .qr     .q  e  e   .qr     .q   e   e   .qr
e|------------------|----------------|-----------------|-------------------|------------------|
B|------------------|----------------|-----------------|-------------------|------------------|
G|--9---9---9-------|--9---9---9-----|--5---5---5------|--5---5---5--------|--9---9---9-------|
D|--9---9---9-------|--9---9---9-----|--5---5---5------|--5---5---5--------|--9---9---9-------|
A|--7---7---7-------|--7---7---7-----|--3---3---3------|--3---3---3--------|--7---7---7-------|
E|------------------|----------------|-----------------|-------------------|------------------|


    .q  e   e  .q    .q   e   e  .qr     q   er  e   e  .qr
e|-----------------|------------------|----------------------|
B|-----------------|------------------|--3-------------------|
G|--9---9---9------|--5---5---5-------|--3-------5---5-------|
D|--9---9---9------|--5---5---5-------|----------5---5-------|
A|--7---7---7------|--3---3---3-------|----------3---3-------|
E|-----------------|------------------|----------------------|


2nd Chorus


    e  qr  e   e  .qr     e  qr  e  e  .qr    .q  e   e  qr  e     q   e   q   e    
e|---------------------|-------------------|--------------------|-----------------|
B|---------------------|-------------------|--------------------|--3-------3------|
G|--9------9---9-------|--9------9---9-----|--5---5---5---------|--3-------3------|
D|--9------9---9-------|--9------9---9-----|--5---5---5------5--|------5-------5--|
A|--7------7---7-------|--7------7---7-----|--3---3---3---------|-----------------|
E|---------------------|-------------------|--------------------|-----------------|


    e  qr  e   e  .qr     e  qr  e  e  .qr    .q  e   e  qr  e     q   e   q   e     
e|---------------------|-------------------|--------------------|-----------------|
B|---------------------|-------------------|--------------------|--3-------3------|
G|--9------9---9-------|--9------9---9-----|--5---5---5---------|--3-------3------|
D|--9------9---9-------|--9------9---9-----|--5---5---5------5--|------5-------5--|
A|--7------7---7-------|--7------7---7-----|--3---3---3---------|-----------------|
E|---------------------|-------------------|--------------------|-----------------|

Bridge


    e  qr   q  .qr    e  qr   q  .qr    e  qr   q  .qr    e  qr    q  .qr    e  qr   q  .qr 
e|-----------------|-----------------|------------------|-----------------|-----------------|
B|----------7------|----------7------|----------8-------|----------8------|----------7------|
G|--7-------7------|--7-------7------|--9-------7-------|--9-------7------|--7-------7------|
D|--7--------------|--7--------------|--9---------------|--9--------------|--7--------------|
A|--5--------------|--5--------------|--7---------------|--7--------------|--5--------------|
E|-----------------|-----------------|------------------|-----------------|-----------------|


    e  qr   q  .qr    e   e   e   e   e   e   e   e   e      e  e   e   e   e   e   e   e
e|-----------------|-------------------------------------|---------------------------------|
B|----------7------|-------------------------------------|---------------------------------|
G|--7-------7------|-------------------------------------|---------------------------------|
D|--7--------------|--5---5---5---5---5---5---5---5---5--|--4---4---4---4---4---4----------|
A|--5--------------|--3---3---3---3---3---3---3---3---3--|--2---2---2---2---2---2----------|
E|-----------------|-------------------------------------|--------------------------3---2--|


3rd Chorus


    e   e  qr  e   e  qr    e   e  qr  e   e  qr   er  q   qr  e  e   qr    er  q   qr  e   e  qr
e|-----------------------|-----------------------|------------------------|-----------------------|
B|-----------------------|-----------------------|------------------------|-----------------------|
G|------9------9---9-----|------9------9---9-----|-----5-------5---5------|-----5-------5---3-----|
D|------9------9---9-----|------9------9---9-----|-----5-------5---5------|-----5-------5---3-----|
A|------7------7---7-----|------7------7---7-----|-----3-------3---3------|-----3-------3---5-----|
E|--0--------------------|--0--------------------|------------------------|-----------------------|


    e   e   qr  e   e qr   e   e  qr   e   e qr  er  e   qr   e   e  qr    er  q   qr  e   e   qr
e|----------------------|----------------------|-------------------------|------------------------|
B|----------------------|----------------------|-------------------------|------------------------|
G|------9-------9---9---|------9-------9---9---|-----5--------5---5------|-----5-------5---5------|
D|------9-------9---9---|------9-------9---9---|-----5--------5---5------|-----5-------5---5------|
A|------7-------7---7---|------7-------7---7---|-----3--------3---3------|-----3-------3---3------|
E|--0-------------------|--0-------------------|-------------------------|------------------------|


Main Solo


    e  qr   q  .qr    e  qr   q  .qr    e  qr   q  .qr    e  qr    q  .qr    e  qr   q  .qr 
e|-----------------|-----------------|------------------|-----------------|-----------------|
B|----------7------|----------7------|----------8-------|----------8------|----------7------|
G|--7-------7------|--7-------7------|--9-------7-------|--9-------7------|--7-------7------|
D|--7--------------|--7--------------|--9---------------|--9--------------|--7--------------|
A|--5--------------|--5--------------|--7---------------|--7--------------|--5--------------|
E|-----------------|-----------------|------------------|-----------------|-----------------|


    e  qr   q  .qr    e   qr  h  er     .e .e .e  .qts     e   e   e   e   e   e   e   e
e|-----------------|-----------------|------------------|---------------------------------|
B|----------7------|-----------------|------------------|---------------------------------|
G|--7-------7------|--5-------5------|--------------4---|---------------------------------|
D|--7--------------|--5-------5------|----------4-------|---------------------------------|
A|--5--------------|--3-------3------|------6-----------|--2---2---2---2---2---2---2---2--|
E|-----------------|-----------------|--7---------------|--0---0---0---0---0---0---0---0--|


    e   e   e   e   e   e   e   e     e   e   e   e   e   e   e   e    e   e   e   e   e   e   e   e
e|---------------------------------|---------------------------------|--------------------------------|
B|---------------------------------|---------------------------------|--------------------------------|
G|---------------------------------|---------------------------------|--------------------------------|
D|--------------------------2---4--|--5---5---5---5---5---5---5---5--|-5---5---4---4---2---2----------|
A|--2---2---2---2---2---2---0---2--|--3---3---3---3---3---3---3---3--|-3---3---2---2---0---0---3---4--|
E|--0---0---0---0---0---0----------|---------------------------------|-------------------------3---2--|


    e   e   e   e   e   e   e   e     e   e   e   e   e   e   e   e     e   e   e   e   e   e   e   e 
e|---------------------------------|---------------------------------|--------------------------------|
B|---------------------------------|---------------------------------|--------------------------------|
G|---------------------------------|---------------------------------|--------------------------------|
D|---------------------------------|--------------------------2---4--|--5---5---5---5---5---5---5---5-|
A|--2---2---2---2---2---2---2---2--|--2---2---2---2---2---2---0---2--|--3---3---3---3---3---3---3---3-|
E|--0---0---0---0---0---0---0---0--|--0---0---0---0---0---0----------|--------------------------------|


   e   e   e   e   e   e   e   e    .q   q   q   e    .q   q   q   e    .q    q   .q
e|--------------------------------|-----------------|-----------------|---------------|
B|--------------------------------|-----------------|-----------------|---------------|
G|--------------------------------|-----------------|-----------------|--2----2----2--|
D|-5---5---4---4---2---2----------|-----------------|-----------------|--2----2----2--|
A|-3---3---2---2---0---0---3---4--|--4---4---4------|--4---4---4------|--0----0----0--|
E|-------------------------3---2--|--2---2---2---0--|--2---2---2---0--|---------------|


    q    e   e   e   e   e   e
e|-----------------------------|
B|-----------------------------|
G|--4---4----------------------|
D|--4---4---4---4---2----------|
A|--2---2---2---2---0---5---4--|
E|----------------------3---2--|


3rd Verse


    e   e  qr  e   e  qr    e   e  qr  e   e  qr   er  q   qr  e  e   qr    er  q   qr  e   e  qr
e|-----------------------|-----------------------|------------------------|-----------------------|
B|-----------------------|-----------------------|------------------------|-----------------------|
G|------9------9---9-----|------9------9---9-----|-----5-------5---5------|-----5-------5---3-----|
D|------9------9---9-----|------9------9---9-----|-----5-------5---5------|-----5-------5---3-----|
A|------7------7---7-----|------7------7---7-----|-----3-------3---3------|-----3-------3---5-----|
E|--0--------------------|--0--------------------|------------------------|-----------------------|


    e   e   qr  e   e qr   e   e  qr   e   e qr  er  e   qr   e   .e .er    er  q   qr  e  .e  .er
e|----------------------|----------------------|-------------------------|------------------------|
B|----------------------|----------------------|-------------------------|------------------------|
G|------9-------9---9---|------9-------9---9---|-----5--------5---5------|-----5-------5---5------|
D|------9-------9---9---|------9-------9---9---|-----5--------5---5------|-----5-------5---5------|
A|------7-------7---7---|------7-------7---7---|-----3--------3---3------|-----3-------3---3------|
E|--0-------------------|--0-------------------|-------------------------|------------------------|



4th Chorus


    e   e  qr  e   e qr   e   e   qr  e  e  qr  er  e  qr   e   e   er  e     q   e   q   e   q
e|----------------------|----------------------|---------------------------|----------------------|
B|----------------------|----------------------|---------------------------|--3-------3-------3---|
G|------9------9---9----|------9------9---9----|-----5-------5---5---------|--3-------3-------3---|
D|------9------9---9----|------9------9---9----|-----5-------5---5------5--|------5-------5-------|
A|------7------7---7----|------7------7---7----|-----3-------3---3---------|----------------------|
E|--0-------------------|--0-------------------|---------------------------|----------------------|

    e   e  qr  e   e qr   e   e  qr   e   e qr  er  e  qr  e   e   e   e     q   e   e   q   e   e
e|---------------------|---------------------|----------------------------|-------------------------|
B|---------------------|---------------------|----------------------------|--3-----------3----------|
G|------9------9---9---|------9------9---9---|-----5-------5---5----------|--3-----------3---2---0--|
D|------9------9---9---|------9------9---9---|-----5-------5---5---2---5--|------2---5--------------|
A|------7------7---7---|------7------7---7---|-----3-------3---3----------|-------------------------|
E|--0------------------|--0------------------|----------------------------|-------------------------|


    e   e  qr  e   e qr   e   e  qr   e   e qr  er  e  qr  e   e   e   e     q   e   e   q   e   e
e|---------------------|---------------------|----------------------------|-------------------------|
B|---------------------|---------------------|----------------------------|--3-----------3----------|
G|------9------9---9---|------9------9---9---|-----5-------5---5----------|--3-----------3---2---0--|
D|------9------9---9---|------9------9---9---|-----5-------5---5---2---5--|------2---5--------------|
A|------7------7---7---|------7------7---7---|-----3-------3---3----------|-------------------------|
E|--0------------------|--0------------------|----------------------------|-------------------------|


Outro

    e   e   e   e   e   e   e  e    e   e   e   e   e   e   e   e     e   e   e   e   e   e   e   e
e|--------------------------------|--------------------------------|---------------------------------|
B|--------------------------------|--------------------------------|---------------------------------|
G|--------------------------------|--------------------------------|---------------------------------|
D|--------------------------------|--------------------------------|---------------------------------|
A|--------------------------------|-------------------------0---2--|--3---3---3---3---3---3---3---3--|
E|--0---0---0---0---0--0---0---0--|--0---0---0---0---0--0----------|---------------------------------|

    e   e   e   e   e   e   e   e     e   e   e   e   e   e   e   e     e   e   e   e   e   e   e   e  e|---------------------------------|---------------------------------|--------------------------------|
B|---------------------------------|---------------------------------|--------------------------------|
G|---------------------------------|---------------------------------|--------------------------------|
D|---------------------------------|---------------------------------|--------------------------------|
A|--3---3---2---2---0---0----------|---------------------------------|-------------------------0---2--|
E|--------------------------3---2--|--0---0---0---0---0---0---0---0--|--0---0---0---0---0--0----------|

    e   e   e   e   e   e   e  e      e   e   e   e   e   e   e   e     
e|---------------------------------|---------------------------------|
B|---------------------------------|---------------------------------|
G|---------------------------------|---------------------------------|
D|---------------------------------|---------------------------------|
A|--3---3---3---3---3---3---3---3--|--3---3---2---2---0---0----------|
E|---------------------------------|--------------------------3---2--|

    e   e   e   e   e   e   e  e    e   e   e   e   e   e   e   e     e   e   e   e   e   e   e   e
e|--------------------------------|--------------------------------|---------------------------------|
B|--------------------------------|--------------------------------|---------------------------------|
G|--------------------------------|--------------------------------|---------------------------------|
D|--------------------------------|--------------------------------|---------------------------------|
A|--------------------------------|-------------------------0---2--|--3---3---3---3---3---3---3---3--|
E|--0---0---0---0---0--0---0---0--|--0---0---0---0---0--0----------|---------------------------------|


    e   e   e   e   e   e   e   e     e   e   e   e   e   e   e   e     e   e   e   e   e   e   e   e  e|---------------------------------|---------------------------------|--------------------------------|
B|---------------------------------|---------------------------------|--------------------------------|
G|---------------------------------|---------------------------------|--------------------------------|
D|---------------------------------|---------------------------------|--------------------------------|
A|--3---3---2---2---0---0----------|---------------------------------|-------------------------0---2--|
E|--------------------------3---2--|--0---0---0---0---0---0---0---0--|--0---0---0---0---0--0----------|


    e   e   e   e   e   e   e  e      e   e   e   e   e   e   e   e    .q   q   q   e 
e|---------------------------------|---------------------------------|-----------------|
B|---------------------------------|---------------------------------|-----------------|
G|---------------------------------|---------------------------------|-----------------|
D|---------------------------------|---------------------------------|-----------------|
A|--3---3---3---3---3---3---3---3--|--3---3---2---2---0---0----------|--4---4---4------|
E|---------------------------------|--------------------------3---2--|--2---2---2---0--|


   .q   q   q   e    .q    q   .q     q    e   e   e   e   e   e    e   e  qr  e   e   qr
e|-----------------|---------------|-----------------------------|-------------------------|
B|-----------------|---------------|-----------------------------|-------------------------|
G|-----------------|--2----2----2--|--4---4----------------------|------9------9---9-------|
D|-----------------|--2----2----2--|--4---4---4---4---2----------|------9------9---9-------|
A|--4---4---4------|--0----0----0--|--2---2---2---2---0---5---4--|------7------7---7-------|
E|--2---2---2---0--|---------------|----------------------3---2--|--0----------------------|


    e   e   qr  e  e    q   q   q     s s  etq     s s     hte    e   e  qr   e   e  qr
e|----------------------|-----------------------|----------------|------------------------|
B|----------------------|--------------------3--|------------3---|------------------------|
G|------9------9---9----|------5---5---------3--|------------3---|------9------9---9------|
D|------9------9---9----|------5---5---3/5------|---3/5----------|------9------9---9------|
A|------7------7---7----|--3---3---3------------|----------------|------7------7---7------|
E|--0-------------------|-----------------------|----------------|--0---------------------|


    e   e   qr  e  e       q   q   q   s s  etq     s s     hte     e   e   q   e   q   e
e|----------------------|-----------------------|----------------|-------------------------|
B|----------------------|--------------------3--|----------------|-------------------------|
G|------9------9---9----|------5---5---------3--|------------5---|------7---9---7---9---9--|
D|------9------9---9----|------5---5---3/5------|---3/5----------|------7---9---7---9---9--|
A|------7------7---7----|--3---3---3------------|----------------|-------------------------|
E|--0-------------------|-----------------------|----------------|--0----------------------|


    e   e   q    e  q   e     q   q   q   s  s  ete    s  s  .e    q       e  .q   e  .q   
e|-------------------------|-----------------------|--------------------|-------------------|
B|-------------------------|--------------------3--|----------5----5/---|-------------------|
G|------7---9---7---9---9--|------5---5---------3--|----------5---------|------9---7---9----|
D|------7---9---7---9---9--|------5---5---3/5------|---3/5--------------|------9---7---9----|
A|-------------------------|--3---3---3------------|--------------------|-------------------|
E|--0----------------------|-----------------------|--------------------|--0----------------|

    

    e  .q   e  .q    q   q   q     s s  etq     s s     hte    
e|-------------------|-----------------------|----------------|
B|-------------------|--------------------5--|------------5---|
G|------9---7---9----|------5---5---------5--|------------5---|
D|------9---7---9----|------5---5---3/5------|---3/5----------|
A|-------------------|--3---3---3------------|----------------|
E|--0----------------|-----------------------|----------------|


    e   e  qr   e   e  qr    e   e  qr   e  e  qr   q   q   q   s s   e     e   e   s s   e   h
e|------------------------|----------------------|-----------------------|-----------------------|
B|------------------------|----------------------|-----------------------|--5---5-------------7--|
G|------9------9---9------|------9------9---9----|------5---5------------|--5---5-------------7--|
D|------9------9---9------|------9------9---9----|------5---5---------5--|----------------7------|
A|------7------7---7------|------7------7---7----|--3---3---3---5/7------|----------7/9----------|
E|--0---------------------|--0-------------------|-----------------------|-----------------------|


    e   e  qr   e   e  qr    e   e  qr   e  e  qr   q   q   q    s s   etq     e   q   e   q
e|------------------------|----------------------|-------------------------|--------------------|
B|------------------------|----------------------|----------------------5--|-------5-------5----|
G|------9------9---9------|------9------9---9----|------5---5-----------5--|-------5-------5----|
D|------9------9---9------|------9------9---9----|------5---5---3---5------|---5-------5--------|
A|------7------7---7------|------7------7---7----|--3---3---3--------------|--------------------|
E|--0---------------------|--0-------------------|-------------------------|--------------------|


    e   e  qr   e   e  qr    e   e  qr   e  e  qr   q   q   q   e  etq     e   q   e   q
e|------------------------|----------------------|---------------------|-------------------|
B|------------------------|----------------------|------------------5--|-------------------|
G|------9------9---9------|------9------9---9----|------5---5-------5--|------5-------5----|
D|------9------9---9------|------9------9---9----|------5---5---3------|------5-------5----|
A|------7------7---7------|------7------7---7----|--3---3---3----------|---3------3--------|
E|--0---------------------|--0-------------------|---------------------|-------------------|


    e   e  qr   e   e  qr    e   e  qr   e  e  qr   q   q   q   s s   ete    e e  .q    e  e
e|------------------------|----------------------|-----------------------|---------------------|
B|------------------------|----------------------|-----------------------|--------------7/12\--|
G|------9------9---9------|------9------9---9----|------5---5---------5--|---------7-----------|
D|------9------9---9------|------9------9---9----|------5---5---------5--|---------7-----------|
A|------7------7---7------|------7------7---7----|--3---3---3---3/5------|---5/7---------------|
E|--0---------------------|--0-------------------|-----------------------|---------------------|


    e   e  qr   e   e  qr    e   e  qr   e  e  qr   e e  .q   q    e e      e   q   e e   q
e|------------------------|----------------------|------------------|------------------------|
B|------------------------|----------------------|------------------|------------------------|
G|------9------9---9------|------9------9---9----|--3h5---5---5-----|-------5---5---------5--|
D|------9------9---9------|------9------9---9----|--3h5---5---5-----|-------5---5---------5--|
A|------7------7---7------|------7------7---7----|----------------3/|/5-------------5/7------|
E|--0---------------------|--0-------------------|------------------|------------------------|


begin fade out

    e   e  qr   e   e  qr    e   e  qr   e  e  qr   q   q   q   e e    .q   e e    .q
e|------------------------|----------------------|-------------------|------------------|
B|------------------------|----------------------|-------------------|------------------|
G|------9------9---9------|------9------9---9----|------5---5--------|--5----------5----|
D|------9------9---9------|------9------9---9----|------5---5--------|--5----------5----|
A|------7------7---7------|------7------7---7----|--3---3---3---3/5--|-------3/5--------|
E|--0---------------------|--0-------------------|-------------------|------------------|


    e   e  qr   e   e  qr    e   e  qr   e  e  qr   
e|------------------------|----------------------|
B|------------------------|----------------------|
G|------9------9---9------|------9------9---9----|
D|------9------9---9------|------9------9---9----|
A|------7------7---7------|------7------7---7----|
E|--0---------------------|--0-------------------|


Guitar III (Heavily Over drive)

Intro


Play  twice

   e   e   e   e   e   e   e   e     e   e   e   e   e   e   e   e     e   e   e   e   e   e   e   e 
e|---------------------------------|---------------------------------|--------------------------------|
B|---------------------------------|---------------------------------|--------------------------------|
G|---------------------------------|---------------------------------|--------------------------------|
D|---------------------------------|--------------------------2---4--|--5---5---5---5---5---5---5---5-|
A|--2---2---2---2---2---2---2---2--|--2---2---2---2---2---2---0---2--|--3---3---3---3---3---3---3---3-|
E|--0---0---0---0---0---0---0---0--|--0---0---0---0---0---0----------|--------------------------------|


   e   e   e   e   e   e   e   e    
e|--------------------------------|
B|--------------------------------|
G|--------------------------------|
D|-5---5---4---4---2---2----------|
A|-3---3---2---2---0---0---3---4--|
E|-------------------------3---2--|


1st Verse


Play  twice

   e   e   e   e   e   e   e   e     e   e   e   e   e   e   e   e     e   e   e   e   e   e   e   e 
e|---------------------------------|---------------------------------|--------------------------------|
B|---------------------------------|---------------------------------|--------------------------------|
G|---------------------------------|---------------------------------|--------------------------------|
D|---------------------------------|--------------------------2---4--|--5---5---5---5---5---5---5---5-|
A|--2---2---2---2---2---2---2---2--|--2---2---2---2---2---2---0---2--|--3---3---3---3---3---3---3---3-|
E|--0---0---0---0---0---0---0---0--|--0---0---0---0---0---0----------|--------------------------------|


   e   e   e   e   e   e   e   e    
e|--------------------------------|
B|--------------------------------|
G|--------------------------------|
D|-5---5---4---4---2---2----------|
A|-3---3---2---2---0---0---3---4--|
E|-------------------------3---2--|


1st Chorus


Play  twice

   e   e   e   e   e   e   e   e     e   e   e   e   e   e   e   e     e   e   e   e   e   e   e   e 
e|---------------------------------|---------------------------------|--------------------------------|
B|---------------------------------|---------------------------------|--------------------------------|
G|---------------------------------|---------------------------------|--------------------------------|
D|---------------------------------|--------------------------2---4--|--5---5---5---5---5---5---5---5-|
A|--2---2---2---2---2---2---2---2--|--2---2---2---2---2---2---0---2--|--3---3---3---3---3---3---3---3-|
E|--0---0---0---0---0---0---0---0--|--0---0---0---0---0---0----------|--------------------------------|


   e   e   e   e   e   e   e   e    
e|--------------------------------|
B|--------------------------------|
G|--------------------------------|
D|-5---5---4---4---2---2----------|
A|-3---3---2---2---0---0---3---4--|
E|-------------------------3---2--|


2nd Verse


Play  twice

   e   e   e   e   e   e   e   e     e   e   e   e   e   e   e   e     e   e   e   e   e   e   e   e 
e|---------------------------------|---------------------------------|--------------------------------|
B|---------------------------------|---------------------------------|--------------------------------|
G|---------------------------------|---------------------------------|--------------------------------|
D|---------------------------------|--------------------------2---4--|--5---5---5---5---5---5---5---5-|
A|--2---2---2---2---2---2---2---2--|--2---2---2---2---2---2---0---2--|--3---3---3---3---3---3---3---3-|
E|--0---0---0---0---0---0---0---0--|--0---0---0---0---0---0----------|--------------------------------|


   e   e   e   e   e   e   e   e    
e|--------------------------------|
B|--------------------------------|
G|--------------------------------|
D|-5---5---4---4---2---2----------|
A|-3---3---2---2---0---0---3---4--|
E|-------------------------3---2--|

2nd Chorus


Play  twice

   e   e   e   e   e   e   e   e     e   e   e   e   e   e   e   e     e   e   e   e   e   e   e   e 
e|---------------------------------|---------------------------------|--------------------------------|
B|---------------------------------|---------------------------------|--------------------------------|
G|---------------------------------|---------------------------------|--------------------------------|
D|---------------------------------|--------------------------2---4--|--5---5---5---5---5---5---5---5-|
A|--2---2---2---2---2---2---2---2--|--2---2---2---2---2---2---0---2--|--3---3---3---3---3---3---3---3-|
E|--0---0---0---0---0---0---0---0--|--0---0---0---0---0---0----------|--------------------------------|


   e   e   e   e   e   e   e   e    
e|--------------------------------|
B|--------------------------------|
G|--------------------------------|
D|-5---5---4---4---2---2----------|
A|-3---3---2---2---0---0---3---4--|
E|-------------------------3---2--|


Bridge


    e  qr   e  hr    e  qr   e  hr    e  qr   e  hr    e  qr   e  hr    e  qr   e  hr 
e|----------------|----------------|----------------|----------------|----------------|
B|----------------|----------------|----------------|----------------|----------------|
G|--7-------7-----|--7-------7-----|--9-------9-----|--9-------9-----|--7-------7-----|
D|--7-------7-----|--7-------7-----|--9-------9-----|--9-------9-----|--7-------7-----|
A|--5-------5-----|--5-------5-----|--7-------7-----|--7-------7-----|--5-------5-----|
E|----------------|----------------|----------------|----------------|----------------|


    e  qr   e  hr    e   qr   h    er     e   e   e   e   e   e   e   e
e|----------------|--------------------|---------------------------------|
B|----------------|--------------------|---------------------------------|
G|--7-------7-----|--5-------5---------|---------------------------------|
D|--7-------7-----|--5-------5---------|--4---4---4---4---4---4----------|
A|--5-------5-----|--3-------3---------|--2---2---2---2---2---2----------|
E|----------------|--------------------|--------------------------3---2--|


3rd Chorus


Play  twice

   e   e   e   e   e   e   e   e     e   e   e   e   e   e   e   e     e   e   e   e   e   e   e   e 
e|---------------------------------|---------------------------------|--------------------------------|
B|---------------------------------|---------------------------------|--------------------------------|
G|---------------------------------|---------------------------------|--------------------------------|
D|---------------------------------|--------------------------2---4--|--5---5---5---5---5---5---5---5-|
A|--2---2---2---2---2---2---2---2--|--2---2---2---2---2---2---0---2--|--3---3---3---3---3---3---3---3-|
E|--0---0---0---0---0---0---0---0--|--0---0---0---0---0---0----------|--------------------------------|


   e   e   e   e   e   e   e   e    
e|--------------------------------|
B|--------------------------------|
G|--------------------------------|
D|-5---5---4---4---2---2----------|
A|-3---3---2---2---0---0---3---4--|
E|-------------------------3---2--|


Main Solo


    e  qr   e  hr    e  qr   e  hr    e  qr   e  hr    e  qr   e  hr    e  qr   e  hr 
e|----------------|----------------|----------------|----------------|----------------|
B|----------------|----------------|----------------|----------------|----------------|
G|--7-------7-----|--7-------7-----|--9-------9-----|--9-------9-----|--7-------7-----|
D|--7-------7-----|--7-------7-----|--9-------9-----|--9-------9-----|--7-------7-----|
A|--5-------5-----|--5-------5-----|--7-------7-----|--7-------7-----|--5-------5-----|
E|----------------|----------------|----------------|----------------|----------------|


    e  qr   e  hr    e   qr   h    er    .e .e .e  .qts     e   e   e   e   e   e   e   e
e|----------------|--------------------|------------------|---------------------------------|
B|----------------|--------------------|------------------|---------------------------------|
G|--7-------7-----|--5-------5---------|--------------4---|---------------------------------|
D|--7-------7-----|--5-------5---------|----------4-------|---------------------------------|
A|--5-------5-----|--3-------3---------|------6-----------|--2---2---2---2---2---2---2---2--|
E|----------------|--------------------|--7---------------|--0---0---0---0---0---0---0---0--|


    e   e   e   e   e   e   e   e     e   e   e   e   e   e   e   e    e   e   e   e   e   e   e   e
e|---------------------------------|---------------------------------|--------------------------------|
B|---------------------------------|---------------------------------|--------------------------------|
G|---------------------------------|---------------------------------|--------------------------------|
D|--------------------------2---4--|--5---5---5---5---5---5---5---5--|-5---5---4---4---2---2----------|
A|--2---2---2---2---2---2---0---2--|--3---3---3---3---3---3---3---3--|-3---3---2---2---0---0---3---4--|
E|--0---0---0---0---0---0----------|---------------------------------|-------------------------3---2--|


    e   e   e   e   e   e   e   e     e   e   e   e   e   e   e   e     e   e   e   e   e   e   e   e 
e|---------------------------------|---------------------------------|--------------------------------|
B|---------------------------------|---------------------------------|--------------------------------|
G|---------------------------------|---------------------------------|--------------------------------|
D|---------------------------------|--------------------------2---4--|--5---5---5---5---5---5---5---5-|
A|--2---2---2---2---2---2---2---2--|--2---2---2---2---2---2---0---2--|--3---3---3---3---3---3---3---3-|
E|--0---0---0---0---0---0---0---0--|--0---0---0---0---0---0----------|--------------------------------|


   e   e   e   e   e   e   e   e    .q   q   q   e    .q   q   q   e    .q    q   .q
e|--------------------------------|-----------------|-----------------|---------------|
B|--------------------------------|-----------------|-----------------|---------------|
G|--------------------------------|-----------------|-----------------|--2----2----2--|
D|-5---5---4---4---2---2----------|-----------------|-----------------|--2----2----2--|
A|-3---3---2---2---0---0---3---4--|--4---4---4------|--4---4---4------|--0----0----0--|
E|-------------------------3---2--|--2---2---2---0--|--2---2---2---0--|---------------|


    q    e   e   e   e   e   e
e|-----------------------------|
B|-----------------------------|
G|--4---4----------------------|
D|--4---4---4---4---2----------|
A|--2---2---2---2---0---5---4--|
E|----------------------3---2--|


3rd Verse


Play  twice

   e   e   e   e   e   e   e   e     e   e   e   e   e   e   e   e     e   e   e   e   e   e   e   e 
e|---------------------------------|---------------------------------|--------------------------------|
B|---------------------------------|---------------------------------|--------------------------------|
G|---------------------------------|---------------------------------|--------------------------------|
D|---------------------------------|--------------------------2---4--|--5---5---5---5---5---5---5---5-|
A|--2---2---2---2---2---2---2---2--|--2---2---2---2---2---2---0---2--|--3---3---3---3---3---3---3---3-|
E|--0---0---0---0---0---0---0---0--|--0---0---0---0---0---0----------|--------------------------------|


   e   e   e   e   e   e   e   e    
e|--------------------------------|
B|--------------------------------|
G|--------------------------------|
D|-5---5---4---4---2---2----------|
A|-3---3---2---2---0---0---3---4--|
E|-------------------------3---2--|


4th Chorus


Play  four times

   e   e   e   e   e   e   e   e     e   e   e   e   e   e   e   e     e   e   e   e   e   e   e   e 
e|---------------------------------|---------------------------------|--------------------------------|
B|---------------------------------|---------------------------------|--------------------------------|
G|---------------------------------|---------------------------------|--------------------------------|
D|---------------------------------|--------------------------2---4--|--5---5---5---5---5---5---5---5-|
A|--2---2---2---2---2---2---2---2--|--2---2---2---2---2---2---0---2--|--3---3---3---3---3---3---3---3-|
E|--0---0---0---0---0---0---0---0--|--0---0---0---0---0---0----------|--------------------------------|


   e   e   e   e   e   e   e   e    
e|--------------------------------|
B|--------------------------------|
G|--------------------------------|
D|-5---5---4---4---2---2----------|
A|-3---3---2---2---0---0---3---4--|
E|-------------------------3---2--|


Outro


Play  three times

   e   e   e   e   e   e   e   e     e   e   e   e   e   e   e   e     e   e   e   e   e   e   e   e 
e|---------------------------------|---------------------------------|--------------------------------|
B|---------------------------------|---------------------------------|--------------------------------|
G|---------------------------------|---------------------------------|--------------------------------|
D|---------------------------------|--------------------------2---4--|--5---5---5---5---5---5---5---5-|
A|--2---2---2---2---2---2---2---2--|--2---2---2---2---2---2---0---2--|--3---3---3---3---3---3---3---3-|
E|--0---0---0---0---0---0---0---0--|--0---0---0---0---0---0----------|--------------------------------|


   e   e   e   e   e   e   e   e    
e|--------------------------------|
B|--------------------------------|
G|--------------------------------|
D|-5---5---4---4---2---2----------|
A|-3---3---2---2---0---0---3---4--|
E|-------------------------3---2--|


    e   e   e   e   e   e   e   e     e   e   e   e   e   e   e   e     e   e   e   e   e   e   e   e 
e|---------------------------------|---------------------------------|--------------------------------|
B|---------------------------------|---------------------------------|--------------------------------|
G|---------------------------------|---------------------------------|--------------------------------|
D|---------------------------------|--------------------------2---4--|--5---5---5---5---5---5---5---5-|
A|--2---2---2---2---2---2---2---2--|--2---2---2---2---2---2---0---2--|--3---3---3---3---3---3---3---3-|
E|--0---0---0---0---0---0---0---0--|--0---0---0---0---0---0----------|--------------------------------|


   e   e   e   e   e   e   e   e    .q   q   q   e    .q   q   q   e    .q    q   .q
e|--------------------------------|-----------------|-----------------|---------------|
B|--------------------------------|-----------------|-----------------|---------------|
G|--------------------------------|-----------------|-----------------|--2----2----2--|
D|-5---5---4---4---2---2----------|-----------------|-----------------|--2----2----2--|
A|-3---3---2---2---0---0---3---4--|--4---4---4------|--4---4---4------|--0----0----0--|
E|-------------------------3---2--|--2---2---2---0--|--2---2---2---0--|---------------|


Play  four times

   e   e   e   e   e   e   e   e     e   e   e   e   e   e   e   e     e   e   e   e   e   e   e   e 
e|---------------------------------|---------------------------------|--------------------------------|
B|---------------------------------|---------------------------------|--------------------------------|
G|---------------------------------|---------------------------------|--------------------------------|
D|---------------------------------|--------------------------2---4--|--5---5---5---5---5---5---5---5-|
A|--2---2---2---2---2---2---2---2--|--2---2---2---2---2---2---0---2--|--3---3---3---3---3---3---3---3-|
E|--0---0---0---0---0---0---0---0--|--0---0---0---0---0---0----------|--------------------------------|


   e   e   e   e   e   e   e   e    
e|--------------------------------|
B|--------------------------------|
G|--------------------------------|
D|-5---5---4---4---2---2----------|
A|-3---3---2---2---0---0---3---4--|
E|-------------------------3---2--|

Outro solo


repeat till end

   e   e   e   e   e   e   e   e     e   e   e   e   e   e   e   e     e   e   e   e   e   e   e   e 
e|---------------------------------|---------------------------------|--------------------------------|
B|---------------------------------|---------------------------------|--------------------------------|
G|---------------------------------|---------------------------------|--------------------------------|
D|---------------------------------|--------------------------2---4--|--5---5---5---5---5---5---5---5-|
A|--2---2---2---2---2---2---2---2--|--2---2---2---2---2---2---0---2--|--3---3---3---3---3---3---3---3-|
E|--0---0---0---0---0---0---0---0--|--0---0---0---0---0---0----------|--------------------------------|


   e   e   e   e   e   e   e   e    
e|--------------------------------|
B|--------------------------------|
G|--------------------------------|
D|-5---5---4---4---2---2----------|
A|-3---3---2---2---0---0---3---4--|
E|-------------------------3---2--|


************************************

| /   slide up
| \   slide down
| h   hammer-on
| p   pull-off
| ~   vibrato
| +   harmonic
| x   Mute note
| b   Bend
| pb  Pre-bend
| br  Bend release
| pbr Pre-bend release
| brb Bend release bend

************************************
Добавлено: 29.05.2015
Другие материалы по этой песне:

Страница создана 23.10.2013
http://primanota.ru/atlanta-rhythm-section/higher-chords.htm
Привет, Гость.
Предлагаем пройти революционный курс по гитаре.
Подарок от PrimaNota.Ru, забирай!