PrimaNota.ru - самый крупный в мире бесплатный архив песенных текстов, аккордов, табулатур и нот


Atif Aslam - Bheegi Yadein - аккорды и текст, видео

Регистрация Запомнить меня
Войти через:  Facebook Google Twitter Vk Yandex Mail.ru

Atif Aslam - Bheegi Yadein - аккорды и текст, видео

Печатать
Просмотров: 133
Bheegi Yadein
Atif Aslam
-------------------------------------------------------------------------------
                           BHEEGI YAADEIN - Atif Aslam
-------------------------------------------------------------------------------

Tuning: Standard

[Vocals only]
Naa mein janu
naa tu jaane
kaisa hai yeh aalam
koi naa jaaneyyy


                 Gm
Phir kyu hai yeh tanhaiye
              E
kaise hai yeh russwaiyee
          B         F#
ghum ho gaye tum
      E
kho gaye hum


Gm
Lahmheyyy
Gm
Aandhi ho ya tufan ho
     E
mere maan mein rahe tu sada
    B          F#
koi apna ho ya paraya ho
     E
usse dhoondoo mein kahan


                Gm
Tau kyu hai yeh tanhaiye
               E
kaisee hai yeh ruswaiye
        B            F#
ghum ho gaye tum
      E
kho gaye hum


Gm
Lamhey, raatein
        F#
koi naa janey

thi kaisi baatein 
    E
woh barasatein
                  F#
woh bheegi bheegi yaadein
                  E
woh bheegi bheegi yaadein


[Guitar Solo]
[A different one is played on the album, but this is an easier adaptation from 
several other live performances]

e|----------------------------------------------------------------------------------|
B|----------------------------------------------------------------------------------|
G|-------------------6-------6-8-9-9---8---6-6---6----------------------------------|
D|--6-9--9---6-9-9-9-----9-9-------------------9---9--6-6-9-------------------------|
A|----------------------------------------------------------------------------------|
E|----------------------------------------------------------------------------------|


e|----------------------------------------------------------------------------------|
B|------------------------------------------------------9b12---11b12r11-9------9----|
G|--6h8p6-----6---6h8p6-----6---6h8p6-----------------8-------------------11-8---11-|
D|--------9p6-----------9p6-----------9p6---------6-9-------------------------------|
A|----------------------------------------------------------------------------------|
E|----------------------------------------------------------------------------------|


[Vocals only]
Sagar kee inn lehron sai gehra hai meraa pyaar
sehrayon kee hawaon mein kaise aae gee bahar


                 Gm
Phir kyu hai yeh tanhaiye
              E
kaise hai yeh russwaiye
          B        F#
ghum ho gaye tum
      E
kho gaye hum


Gm
Lamhey, woh raatein
        F#
koi naa janey
thi kaisi baatein 
      E
woohh barasatein
                  F#
woh bheegi bheegi yaadein
                  E
woh bheegi bheegi yaadein


    E          F#
Who lamhey woh raatein
        B   F#  E
koi naa janeeyyy
        E      F#  Gm
bheegii yaadeinn (x4)

Gm
Woh lamheyyyy
Добавлено: 14.11.2013
Другие материалы по этой песне:
  • Аккорды и текст

Страница создана 14.11.2013
http://primanota.ru/atif-aslam/bheegi-yadein-chords.htm
Привет, Гость.
Предлагаем пройти революционный курс по гитаре.
Подарок от PrimaNota.Ru, забирай!