PrimaNota.ru - самый крупный в мире бесплатный архив песенных текстов, аккордов, табулатур и нот


Athlete - Dungeness - текст песни, таба, видео

Регистрация Запомнить меня
Войти через:  Facebook Google Twitter Vk Yandex Mail.ru

Athlete - Dungeness - текст песни, таба, видео

Печатать
Просмотров: 149
Авторы музыки: Athlete
Авторы текста: Athlete
Artist: Athlete
Song: Dungeness
Album: Vehicles and Animals

Tabbed by Pete Chichester

F F* 5th fret
0 5
1 6
2 5
3 0
3 x
x x

S=slide
b=bend


Verse 1
          Cadd9             F
I found a rope and a rubber glove
               Cadd9
you found some pretty stones and they had holes
             F
so you could tie them together
           Cadd9      F
tie them together
           Cadd9     F* (5th fret)
tie them together

Verse 2
            Cadd9             F
and when we spoke there was silence
               Cadd9
cos there's no need to make a sound when you've got
F
   smiles instead
         Cadd9   F
smiles instead
         F* (5th Fret)
smiles instead

Chorus

Cadd9      F
go to Dungeness
      Cadd9      F
let's go to Dungeness
      Cadd9      F
let's go to Dungeness
      Cadd9      F
let's go to Dungeness

Bridge/Solo

F                G           F               G         F

E|---------------8-7-------------------------8-7-10-------------|
B|-6-5-6-5-6-5-6-----8-8b10--5-6-5-6-5-6-5-6--------8---6-5-6-5-|
G|--------------------------------------------------------------|
D|--------------------------------------------------------------|
A|--------------------------------------------------------------|
E|--------------------------------------------------------------|

          G         F               G         F
E|--------8-7---------------------8-7-10-------------------------|
B|-6-5-6------8-s10-6-5-6-5-6-5-6--------8-9-10-10-10-10-10-10---|
G|---------------------------------------------------------------|
D|---------------------------------------------------------------|
A|---------------------------------------------------------------|
E|---------------------------------------------------------------|

                                      C               F
E|----------------------------------------------------------------|
B|-12-12-12-12-13-15(bend lots) then-------5-------5-------5------|
G|---------------------------------------5---5---5---5---5---5----|
D|-------------------------------------5-------5-------7----------|
A|----------------------------------------------------------------|
E|----------------------------------------------------------------|

           F                Dm Cadd9           F
E|--------------------------------------------------------------|
B|-----5---6-5-----6-5----5---------5-------5-------5-------5---|
G|---5---5-----5-------5----7-----5---5---5---5---5---5---5---5-|
D|-7-------------7--------------5-------5-------7-------7-------|
A|--------------------------------------------------------------|
E|--------------------------------------------------------------|

  F              Dm  Cadd9           F               F
E|--------------------------------------------------------------|
B|-6-5-----6-5---5-------5-------5-------5-------5----6-5-------|
G|-----5-------5---7---5---5---5---5---5---5---5---5------5-----|
D|-------7-----------5-------5-------7-------7--------------7---|
A|--------------------------------------------------------------|
E|--------------------------------------------------------------|


E|---------------|
B|-6-5---5-------|
G|-----5---7-----|
D|---------------|
A|---------------|
E|---------------| the end of this rings out in to the
                       Beginning of the next verse


Verse 3
          Cadd9          F
no tall latte in a rusty shed
              Cadd9                                    F
just shots of light and broken bike to stimulate your busy head
        Cadd9
in Dungeness
        F
in Dungeness
         Cadd9  (let ring)
try dungeness
Добавлено: 19.07.2012
Другие материалы по этой песне:
  • Аккорды и текст

Страница создана 05.07.2012
http://primanota.ru/athlete/dungeness-chords.htm
Привет, Гость.
Предлагаем пройти революционный курс по гитаре.
Подарок от PrimaNota.Ru, забирай!