PrimaNota.ru - самый крупный в мире бесплатный архив песенных текстов, аккордов, табулатур и нот


Atheist - Unqestionable Presence - аккорды и текст, таба, видео

Регистрация Запомнить меня
Войти через:  Facebook Google Twitter Vk Yandex Mail.ru

Atheist - Unqestionable Presence - аккорды и текст, таба, видео

Печатать
Просмотров: 125
Unqestionable Presence
Atheist
v================================================================================
         Title : Unquestionable Presence
        Artist : Atheist
         Album : Unquestionable Presence
Transcribed by : J. Litvak, converted and corrected by : Coypu
================================================================================

SECTION A:
|------------------------------------------------------|
|*----4-----4------4-----4------4-----4------4-----4--*|
|*----------------------------------------------------*|
|--2-----2------2-----3------0-----0------0-----3------|

|------------------------------------------------------|
|-----8-----8------8-----8------8-----8------8-----8---|
|------------------------------------------------------|
|--6-----6------6-----6------6-----6------6-----6------|

|---------------------------------------------------------|
|-----8-----8------8-----8-------7-----7------7-----7--/-|
|---------------------------------------------------------|
|--5-----5------5-----5-------5------5------5-----5-----/-|

|--------------------------------------------------------|
|-----8------8------8-----8------8-----8------8-----8----|
|--------------------------------------------------------|
|--6-----6-------6-----6------6-----6------6-----6-------|

|---------------------------------------------------------|
|-----8-----8------8-----8-------7-----7------7-----7---|
|---------------------------------------------------------|
|--5-----5------5-----5-------5------5------5-----5------|

|--------------------------------------------------------|
|-----4-----4------4------4------4-----4------4-----4----|
|--------------------------------------------------------|
|--2-----2------2------2------2-----2------2-----3-------|

|-------------------------------------------------------|
|-----4-----4------4------4------4-----4------4-----4---|
|-------------------------------------------------------|
|--0-----0------0------3------2-----2------2-----2------|

|-------------------------------------------------------|
|-----4-----4-----4-----4-----4------4-----4-----4------|
|-------------------------------------------------------|
|--2-----2-----2-----3-----0-----0------0-----3-----2---|

SECTION B: Similar to SECTION M (Listen to the song)

First time only
|-------------|
|-----4-----4-|
|-------------|
|--2-----2----|

|------------------------------------------------|
|-----4-----4----------------4------4------------|
|---------------4--3--0-----------------4--3--0--|
|--2-----2----------------2------2---------------|

|----------------------------------------------------------------------|
|-----4-----4------------------------4-----4-----------------------4---|
|---------------4--3--0--4--3--0--------------4--3---0--4--3-----------|
|--2-----2------------------------2-----2---------------------3--------|

SECTION C:
|--------------------------------------------|
|--------------------------------------------|
|-------0----4----2----0----------------x---|
|--2-----------------------------------------|

|----------------------------------------------|
|----------------------------------------------|
|--------0----4----2----0----------------x----|
|--2-------------------------2-----------------|

|------------------------------------------|
|------------------------------------------|
|------0----4----2----0--------------------|
|-2----------------------------------------|

|-------------------------------------------------|
|-------------------------------------------------|
|-------0----4----2--------------4--3--0--4--3--0-|
|--2-------------------2--------------------------|

REPEAT SECTION B:

SECTION D: 
|--------------------------------------------------|
|*------------------------------------------------*|
|*------------------------------6-----------------*|
|---2-----2-----x--5--6--5-------------x--x---7---|

SECTION E: 
|------------------------------------------------|
|---4-------4------------------------------------|
|---------------4-------4-----0-----------------|
|------------------------------------------------|

|-------------2-------2---(2)/--4---|
|--4-------4------------------------|
|-----------------------------------|
|-----------------------------------|

|---------------------------------------------------------|
|------------4--------4/-7---------7---2-----------------|
|---------------------------------------------------------|
|---------------------------------------------------------|


|----------------------------------r-------------|
|--4--------4------------------------------------|
|--------------4-------4---2------------------r--|
|------------------------------------------------|

LEAD 1 RHYTHM: 
|--------------------------------------------------|
|--------------------------------------------------|
|*------------------------------6-----------------*|
|---2-----2-----x--5--6--5-------------x--x--7----|
   7x
                                                             
|-----------------------------------------------|
|-----------------------------------------------|
|------------------------------6------------6--|
|--2-----2-----x--5--6--5-------------x--x------|
   
SECTION F: 
|--------------------------------------------------------|
|--------------------------------------------------------|
|*--3------3------2--------------------------------------|
|----------------------0--0--0-0-0--0-0-0--3-3-0--3-3-0--|
              
|------------------------------------------------------|
|------------------------------------------------------|
|--7-----7-----6--------------------------------------*|
|-------------------0---0--6-6-6--6-6-6--6--5--5--4----|
                              3x        

SECTION G: 
|----------------------------------------------|
|----------------------------7---8-------------|
|*--5---8--5-------------5-----------8-----7--*|
|--------------5---4---------------------------|

SECTION H: 
|---------------------------------------------|
|---6-----------------------------------------|
|-----------6-------5---5---------------------|
|-------------------------------5-------4-----|

|---------------------------------------------|
|------------------------6--------------------|
|--5----------------------------6-------5-----|
|----------5-------4--------------------------|

SECTION I: 
|---------------------------------------------------------------|
|-------------------------------------------------1p-0-----0----|
|*------------------------------------------------------1------*|
|---2-2-2--2-2-2---2-2-2--2-2-2---2-2--2--2-2-2-----------------|
                        4x

|------------------------------------------
|------------------------------------------
|---1--------------------------------------
|--------------1-----0-----4-----3---------

SECTION J: 
|--------------------------------------------------------|
|*------------------------------------------2p-1-----1--*|
|*------------------------------------------------2-----*|
|---0--0--0--0---0--0--0-0-0---0--0--0--0----------------|               
                        4x

SECTION K: 4x (I'm abit unsure of this part) Fast!
|--------------------------------------------------------------------|
|--------------------------------------------------------------------|
|---7-7-7-7-6-6-5-5--5-5-5-5-4-4-3-3--12-11-10----------12-11-10--11-|
|----------------------------------------------12-11-10--------------|

SECTION L: 
|-----------------------------------------|
|-----------------------------------------|
|--7--7-7-7--7--7-7-7---------------------|
|----------------------6--6-6-6--6--6-6-6-|
                                                                        
|---------------------------------------|--------------------------------|
|---------------------------------------|--------------------------------|
|--2--2-2-2---2--2-2-2------------------|--------------4--3--0--4--3--0--|
|-----------------------1--1-1-1--1-----|--------------------------------|

SECTION M: 
|------------------------------------------------|--------------------------------|
|-----4------4----------------4-----4------------|-----4-----4--------------------|
|----------------4--3--0----------------4--3--0--|---------------4--3--0--4--3--0-|
|--2-----2-----------------2-----2---------------|--2-----2-----------------------|

|--------------------------------------------------------------------------------|
|-----4-----4-------------------------4-----4----------------4-----4-------------|
|--------------4--3--0--4--3--------------------4--3--0-----------------4--3--0--|
|--2-----2--------------------3----2-----2----------------2-----2----------------|
            
|---------------------------------------------------------------------------------|
|----4-----4-----------------------4-----4----------------------------------------|
|-------------4--3--0--4--3--0--------------4--3--0--4--3------4----5-------4-----|
|-2-----2-----------------------2-----2--------------------3---2----3-------2-----|

SECTION N: 
|------9--9-9-9-9-9---------8-8-8---------------
|--------------------10--7---------7-7-7-7------
|*----------------------------------------------
|---0-------------------------------------------

|-----9--9-9-9-9-9---------8-8-8-8-----------|
|-------------------10--7--------------------|
|-------------------------------------------*|
|--0-----------------------------------------|

REPEAT SECTION E:

END: 
|---------------------------------------------------|
|---------------------------------------------------|
|*-------------------------------6-----------------*|
|---2-----2-----x--5--6--5--------------x--x--7----|
                   3x

|------------------------------------------------|
|------------------------------------------------|
|----------------------------4--3--0--4--3-------|
|---2---2---2---^2--------------------------3--2-|
Добавлено: 03.04.2012
Другие материалы по этой песне:
  • Аккорды и текст

Страница создана 03.04.2012
http://primanota.ru/atheist/unqestionable-presence-chords.htm
Привет, Гость.
Предлагаем пройти революционный курс по гитаре.
Подарок от PrimaNota.Ru, забирай!