PrimaNota.ru - самый крупный в мире бесплатный архив песенных текстов, аккордов, табулатур и нот


Atheist - Second To Sun - таба, видео

Регистрация Запомнить меня
Войти через:  Facebook Google Twitter Vk Yandex Mail.ru

Atheist - Second To Sun - таба, видео

Печатать
Просмотров: 249
Уроки эстрадного вокала в Санкт-Петербурге
Авторы музыки: Atheist
Авторы текста: Kelly Shaefer
-------------------------------------------------------------------------------
			     Second To Sun - Atheist
-------------------------------------------------------------------------------

Album: "Jupiter" (2010)
Tabbed by: TerrorMetal	
Email: gdreater@hotmail.com

Tuning: E

Sorry, I didn't write how many repetitions of every riff there are, or their order 
in the song, but they're easy to figure out. Enjoy it.

Riff 1
e|----------------------------------------------------------|
B|---------7------------------------------------------------|
G|---------10b----------------------------------------15----|
D|-2------------------2---2-8-8-8-8-------7-7-7-7-7-7-14----|
A|-2------------------------8-8-8-8-------5-5-5-5-5-5-13----|
E|-0----------------0---0---6-6-6-6-------5-5-5-5-5-5-------|
   *                *   *                 * * * * * * 

e|---------------------------------|
B|---------------------------------|
G|---------------------------------|
D|-2---2----------2---2--8-8-8-8---|
A|-2---2-----------------8-8-8-8---|
E|-0---0--------0---0----6-6-6-6---|
   *   *        *   *


Riff 2 Intro Fill (Only First Time)
e|-------|
B|-------|
G|-------|
D|-------|
A|-------|
E|-0-0-0-|
   * * *


Riff 2
e|-------------------------|
B|-------------------------|
G|-------------------------|
D|-------------------------|
A|-7-----------------------|
E|---6-0-6-5-0-5-6-0-6-5-0-|
   * * * * * * * * * * * *  

Riff 3
e|-------------------------|
B|-------------------------|
G|-------------------------|
D|-------------------------|
A|-5-----------------------|
E|---4-0-4-3-0-3-4-0-4-3-0-|
   * * * * * * * * * * * *  

Riff 4
Guitar 1
e|---------|
B|---------|
G|-4-------|
D|---6-5-4-|
A|---------|
E|---------|
Guitar 2
e|---------|
B|---------|
G|-7-------|
D|---9-8-7-|
A|---------|
E|---------|

Riff 5
Guitar 1
e|-------------------------------------------------------------------------|
B|-------------------------------------------------------------------------|
G|-------------------------------------------------------------------------|
D|-2-----------------------------------------------------------------------|
A|-2-------------------------------2-2-------------------------------------|
E|-0-------------------------------0-0-------------------------------------|
   *                               * *
Guitar 2
e|-------------------------------------------------------------------------|
B|-------------------------------------------------------------------------|
G|-7-------7-------7-------7-------7-------7-------7-------7-------7-------|
D|---9-8-6---9-8-6---9-8-6---9-8-6---9-8-6---9-8-6---9-8-6---9-8-7---9-8-6-|
A|-------------------------------------------------------------------------|
E|-------------------------------------------------------------------------|


Guitar 1
e|-------------------------------------------------------------------------|
B|-------------------------------------------------------------------------|
G|-------------------------------------------------------------------------|
D|-------------------------------------------------------------------------|
A|-2-2------------------------------2-2------------------------------------|
E|-0-0------------------------------0-0------------------------------------|
   * *                              * *
Guitar 2
e|-------------------------------------------------------------------------|
B|-------------------------------------------------------------------------|
G|-7-------7-------7-------7-------7-------7-------7-------7-------7-------|
D|---9-8-6---9-8-6---9-8-6---9-8-6---9-8-6---9-8-6---9-8-6---9-8-7---9-8-6-|
A|-------------------------------------------------------------------------|
E|-------------------------------------------------------------------------|


Riff 6 (Solo Rhythm)
e|---------------------------------------------------------|
B|---------------------------------------------------------|
G|---12---12-12-12---12---12-12-12-------------------------|
D|---11---11-11-11---11---11-11-11---5---5-5-5---5---5-5-5-|
A|---10---10-10-10---10---10-10-10---4---4-4-4---4---4-4-4-|
E|-0----0----------0----0----------0-3-0-3-3-3-0-3-0-3-3-3-|
   *    *          *    *          *   *       *   *

Riff 7
e|-------------------------------------------------|
B|-------------------------------------------------|
G|-------------------------------------------------|
D|-------------------------------------------------|
A|-4-----------------------------------------------|
E|---1-0-1-0-1-4-1-0-1-0-1-3-1-0-1-0-1-2-1-0-1-0-1-|
   * * * * * * * * * * * * * * * * * * * * * * * *

Riff 8
e|-------------------------------------------------|
B|-------------------------------------------------|
G|-------------------------------------------------|
D|-------------------------------------------------|
A|-4-----------------------------------------------|
E|---1-0-1-0-1-4-1-0-1-0-1-3-1-0-1-0-1-2-1-0-1-0-1-|


Riff 9

Guitar 1
e|------------------------------------------|
B|------------------------------------------|
G|------------------------------------------|
D|-6666666662226666666666667779999999999777-|
A|------------------------------------------|
E|------------------------------------------|
Guitar 2
e|------------------------------------------|
B|------------------------------------------|
G|-------------------------5557777777777555-|
D|-999999999555999999999999-----------------|
A|------------------------------------------|
E|------------------------------------------|


Riff 10
e|---------------------------------------------------------------------------------|
B|----------------------------------7--7--7--7--7--7--7--7--7--7--7--7--7--7--7--7-|
G|---------------------------------10-10-10-10-10-10-10-10-10-10-10-10-10-10-10-10-|
D|------------------------------------(gradually bend the 10th fret while picking)-|
A|-2-------2-------2-------2-------------------------------------------------------|
E|-0-------0-------0-------0-------------------------------------------------------|
   *       *       *       *

Riff 11
e|------------------------|
B|------------------------|
G|------------------------|
D|---2---2-8-8-8-8--------|
A|---------8-8-8-8--------|
E|-0---0---6-6-6-6--------|
   *   *   


************************************

| /   slide up
| \   slide down
| h   hammer-on
| p   pull-off
| ~   vibrato
| +   harmonic
| x   Mute note
| b   Bend
| pb  Pre-bend
| br  Bend release
| pbr Pre-bend release
| brb Bend release bend
Добавлено: 13.07.2013
Другие материалы по этой песне:
  • Аккорды и текст

Страница создана 13.07.2013
http://primanota.ru/atheist/second-to-sun-chords.htm
Привет, Гость.
Предлагаем пройти революционный курс по гитаре.
Подарок от PrimaNota.Ru, забирай!