PrimaNota.ru - самый крупный в мире бесплатный архив песенных текстов, аккордов, табулатур и нот


Atheist - On They Slay - аккорды и текст, видео

Регистрация Запомнить меня
Войти через:  Facebook Google Twitter Vk Yandex Mail.ru

Atheist - On They Slay - аккорды и текст, видео

Печатать
Просмотров: 132
Авторы музыки: Kelly Shaefer
Авторы текста: Kelly Shaefer
On They Slay
Atheist
================================================================================
         Title : On They Slay
        Artist : Atheist
         Album : Piece Of Time
Transcribed by : J. Litvak, converted and corrected by : Coypu
================================================================================

Some timings are not exact so listen to the song and you will have no trouble
figuring it out.

SECTION A: BOTH GUITARS
G|--------------------------------------------------------------|
D|--------------------------------------------------------------|
A|*-----------------------------------------------------3-------|
E|---0--0-0-0--0-0-0---0-0-0---0-0-0---0-0-0---0-0-1--0----0-1--|
B|--------------------------------------------------------------|

G|--------------------------------------------------------------|
D|--------------------------------------------------------------|
A|-----------------------------------------------------3----1--*|
E|-0---0-0-0--0-0-0---0-0-0---0-0-0---0-0-0---0-0-1--0----0-----|
B|--------------------------------------------------------------|
                                4x

SECTION B: 
G|---------------------------------------------------------------------|
D|---------------------------------------------------------------------|
A|---------------------------------------------------------------------|
E|--0--0-0--0-0--0-0-0-0--0-0-0-0--0-0-0-0--0-0-0-0--0-0-0-0--0-0-0-0--|
B|---------------------------------------------------------------------|

G|------------------------------------------------------------------------|
D|------------------------------------------------------------------------|
A|------------------------------------------------------------------------|
E|-0-0-0-0--0-0-0-0-0-0-0-0-0-0-0-0-0-0-0-0-0-0-0-0-0-0-0-0--0--1-1-1-1---|
B|------------------------------------------------------------------------|

SECTION C:
G|------------------------------------------------|
D|------------------------------------------------|
A|*-----------------------------------------------|
E|---0-----------------(0)---------------1-1-1-1--|
B|------------------------------------------------|

G|---------------------------------------------------------------------|
D|---------------------------------------------------------------------|
A|--------------------------------------------------------------------*|
E|-0--0-0-0-0-0-0-0-0--0-0--0-0-0-0-0-0--0-0-0-0-0-0-0-0--0--1-1-1-1---|
B|---------------------------------------------------------------------|
                        
G|--------------------------------------------|
D|--------------------------------------------|
A|--------------------------------------------|
E|---1----------------(1)---------------------|
B|--------------------------------------------|

SECTION D: 
G|-------------------------------------------------------------------------------|
D|-------------------------------------------------------------------------------|
A|----------------------------------2-3-2-----------------------------2-3-2------|
E|----------0--0-0-0--0-0-0-2-2-3-0-------0-0--0--0-0-0-0-0-0-0-2-3-0--------0---|
B|-------------------------------------------------------------------------------|
                                                             
G|-------------------------------------------------------------------|
D|-------------------------------------------------------------------|
A|-----------------------2-3-2---------------------------------------|
E|-0--0-0--0-0-0-0-2-3-0-------0-0--1--1-1-1-1-1-1-1-1-1-1-x/-------|
B|-------------------------------------------------------------------|

SECTION E:                                                                     
G|------------------------------------------------------------------------|
D|------------------------------------------------------------------------|
A|*-------------------------2-3-2------------------------------2-3-2------|
E|---0---0--0-0-0-0-0-2-3-0-------3-2----0---0-0-0-0-0-0-2-3-0-------3-2--|
B|------------------------------------------------------------------------|
                                                                      
G|----------------------------------------------------------------------|
D|-----------------------------------------------------------------3----|
A|------------------------2-3-2--------------------------------3-3-----*|
E|-0----0-0-0-0-0-0-2-3-0-------3-2----1---1-1-1-1-1-1-1-1-1-1----------|
B|----------------------------------------------------------------------|
                                  3x

SECTION F:
G|-------------------------------------------------------------------|
D|-------------------------------------------------------------------|
A|----7-7-7-7-8-8-7-7--6-6-6-6-7-7-6-6--5-5-5-5-6-6-5-5--5-----------|
E|------------------------------------------------------------6---5--|
B|-------------------------------------------------------------------|

G|--------------------------------------------------------------------------
D|-----------------------------------------------------------5---4----------
A|--7--7-7-7-8-8-7-7--6-6-6-6-7-7-6-6--5-5-5-5-6-6-5-5--5-------------7-7-7-
E|--------------------------------------------------------------------------
B|--------------------------------------------------------------------------

G|------------------------------------------------------------|
D|------------------------------------------------------------|
A|-7--8--8-7-7--6-6-6-6-7-7-6-6--5-5-5-5-6-6-5-5--5-----------|
E|-----------------------------------------------------6---5--|
B|------------------------------------------------------------|

G|-----------------------------------------------------------------------------
D|---------------------------------------------------------------------------5-
A|--7-7-7--7--8--8-7-7--6-6-6-6-7-7-6-6---5----5-5-5-6---6--5-5---5------------
E|-----------------------------------------------------------------------------
B|-----------------------------------------------------------------------------

G|----------------------------------------------------------------------
D|----4-----------------------------------------------------------------
A|---------7-7-7-7--8-7-7--6-6-6-6-7-6-6--5-5-5-5-6-5-5--5-----------
E|---------------------------------------------------------------6---5--
B|----------------------------------------------------------------------

G|---------------------------------------------------------------------
D|--------------------------------------------------------5---4--------
A|--7-7-7-7--8-7-7--6-6-6-6-7-6-6--5-5-5-5-6-5-5--5-------------7-7-
E|---------------------------------------------------------------------
B|---------------------------------------------------------------------

G|------------------------------------------------------------|
D|------------------------------------------------------------|
A|-7-7-8-8-7-7--6-6-6-6-7-7-6-6--5-5-5-5-6-6-5-5--5-----------|
E|-----------------------------------------------------6---5--|
B|------------------------------------------------------------|
                                                                    
G|------------------------------------------------------------------|
D|-----------------------------------------------------------5---4--|
A|--7-7-7--7-8-8-7-7--6-6-6-6-7-7-6-6--5-5-5-5-6-6-5-5--5-----------|
E|------------------------------------------------------------------|
B|------------------------------------------------------------------|

repeat section A

SECTION G: 
G|-------------------7--6---------|
D|------------6--5----------------|
A|------5--4----------------------|
E|--------------------------------|
B|--------------------------------|

SECTION H: 
G|--------------------------------------------------------|
D|--------------------------------------------------------|
A|*--3-------------2----------------------------1---2---1-|
E|-------0--0--0-------0--0--0--0---0--0--0--0------------|
B|--------------------------------------------------------|
                                                                                       
G|---------------------------------------------7---6------|
D|--------------------------------------6--5--------------|
A|--3-------------2---------------5--4-------------------*|
E|------0--0--0-------0--0--0--0--------------------------|
B|--------------------------------------------------------|
                            5x
SECTION I: 
G|-------------------------------------------------------------------|
D|-------------------------------------------------------------------|
A|*--3----------------2------------------------------------1---2---1-|
E|-------0-0-0-0-0-0-----0-0-0-0-0-0-0-0-0-0-0-0-0-0-0-0-------------|
B|-------------------------------------------------------------------|

G|---------------------------------------------------7--6-------|
D|---------------------------------------------6--5-------------|
A|--3----------------2-------------------5--4------------------*|
E|------0-0-0-0-0-0-----0-0-0-0-0-0-0-0-------------------------|
B|--------------------------------------------------------------|

SECTION J: 
G|------------------------------------------------------------|
D|------------------------------------------------------------|
A|*-----------------------------------------------------------|
E|---1--0-0-0--0-0-1--0-2--0-3---1--0-0-0--0-0-6-----5----4---|
B|------------------------------------------------------------|
                              4x

G|----------------------------------------------------------|
D|----------------------------------------------------------|
A|---------------------------------------------------------*|
E|-1--0-0-0--0-0-1--0-2--0-3---1--0-0-0--0-0-6-----5----4---|
B|----------------------------------------------------------|

G|--------------------------------------------|
D|--------------------------------------------|
A|--------------------------------------------|
E|------------4----3------------------4----3--|
B|--------------------------------------------|

G|----------------------------------------------|
D|----------------------------------------------|
A|----------------------------------------------|
E|--2----------------4----3----2-----1---x/----|
B|----------------------------------------------|

SECTION K: 
G|------------------------------------------------------------------------|
D|------------------------------------------------------------------------|
A|*------------------------2-3-2-------------------------------2-3-2------|
E|---0---0-0-0-0-0-0-2-3-0-------3-2----0---0-0-0-0-0--0-2-3-0-------3-2--|
B|------------------------------------------------------------------------|

G|----------------------------------------------------------------------|
D|-----------------------------------------------------------------3----|
A|-----------------------2-3-2---------------------------------3-3-----*|
E|-0---0-0-0-0-0-0-2-3-0-------3-2----1---1-1-1-1--1-1-1-1-1-1----------|
B|----------------------------------------------------------------------|

END: 
G|------------------------------------------------------------------------|
D|------------------------------------------------------------------------|
A|-------------------------2-3-2-------------------------------2-3-2------|
E|---0---0-0-0-0-0-0-2-3-0-------3-2----0---0-0--0-0-0-0-2-3-0-------3-2--|
B|------------------------------------------------------------------------|

G|-------------------------------------------------------*|
D|-------------------------------------------------------*|
A|-----------------------2-3-2---------------------------*|
E|-0---0-0-0-0-0-0-2-3-0-------3-2----1------------------*|
B|-------------------------------------------------------*|
Добавлено: 16.06.2012
Другие материалы по этой песне:
  • Аккорды и текст

Страница создана 25.04.2012
http://primanota.ru/atheist/on-they-slay-chords.htm
Привет, Гость.
Предлагаем пройти революционный курс по гитаре.
Подарок от PrimaNota.Ru, забирай!