PrimaNota.ru - самый крупный в мире бесплатный архив песенных текстов, аккордов, табулатур и нот


Atheist - Beyond - аккорды и текст, видео

Регистрация Запомнить меня
Войти через:  Facebook Google Twitter Vk Yandex Mail.ru

Atheist - Beyond - аккорды и текст, видео

Печатать
Просмотров: 165
Авторы музыки: Steve Flynn, Roger Patterson, Kelly Shaefer
Авторы текста: Kelly Shaefer
Beyond
Atheist
================================================================================
         Title : Beyond
        Artist : Atheist
         Album : Piece Of Time
Transcribed by : J. Litvak, converted and corrected by : Coypu
================================================================================

Some timings are not exact so listen to the song and you will have no trouble
figuring it out.

SECTION A:
G|-----------------------------------------------------------|
D|-----------------------------------------------------------|
A|*--------------------------8----------------------------6--|
E|---0--0--0-0-0--0-0-0--7--------0--0--0-0-0--0-0-0--5------|
B|-----------------------------------------------------------|

G|-----------------------------------------------------------|
D|-----------------------------------------------------------|
A|----------------------------8------------------------------|
E|----0--0--0-0-0--0-0-0--7-------0--0--0-0-0--0-0-0--6------|
B|-----------------------------------------------------------|

G|------------------------------------------------------------|
D|------------------------------------------------------------|
A|----------------------------8----------------------------6--|
E|---0--0--0-0-0--0-0--0--7--------0--0--0-0-0--0-0-0--5------|
B|------------------------------------------------------------|
                                        
G|----------------------------------------------------------------|
D|----------------------------------------------------------------|
A|------------------------8--------------------------------------*|
E|-0--0--0-0-0--0-0-0--7-----0--0--0-0-0--0-0-0-6--0-0-5--0-0-6---|
B|----------------------------------------------------------------|
                                 3x
SECTION B:
G|--------------------------------------------------------------------------|
D|------------3-2--------------2p0---------------3-2-------------2h3------|
A|*------------------------3p2---------------------------------2h3-----2h3--|
E|---0-0-0-0-------0-0-0-0----------3p2--0-0-0-0-------0-0-0-0--------------|
B|--------------------------------------------------------------------------|

G|-------------------------------------------------------------------------|
D|----------3-2--------------2p0---------------3-2-------------2h3-------|
A|------------------------3p2--------------------------------2h3-----2h3--*|
E|-0-0-0-0-------0-0-0-0----------3p2--0-0-0-0-------0-0-0-0---------------|
B|-------------------------------------------------------------------------|
                           
SECTION C:
G|----------------------------------------------------------------------|
D|----------------------------------------------------------------------|
A|---------------------------------1------------------------------------|
E|---0-0-0-0-0-0-0--0-0-0-0-0--3-0-----0-0-0-0-0-0-0-0-0-0-0-0--3-0-1---|
B|----------------------------------------------------------------------|
                                                   
G|----------------------------------------------------------------|
D|----------------------------------------------------------------|
A|-------------------------------1---------------------------6----|
E|-0-0-0-0-0-0-0--0-0-0-0-0--3-0-----0-0-0-0-0-0-0-0--0-----------|
B|----------------------------------------------------------------|

SECTION D:
G|----------------------------------------------------------------------|
D|----------------------------------------------------------------------|
A|*--------------------------------1------------------------------------|
E|---0-0-0-0-0-0-0-0--0-0-0-0--3-0-----0-0-0-0-0-0-0-0-0-0-0-0--3-0-1---|
B|----------------------------------------------------------------------|
                                                  
G|---------------------------------------------------------------------|
D|---------------------------------------------------------------------|
A|-------------------------------1--------------------7------------6--*|
E|-0-0-0-0-0-0-0-0--0-0-0-0--3-0-----0-0-0-0-0-0-0-0-----0-0-0--8------|
B|---------------------------------------------------------------------|

SECTION E:
G|----------------------------------------------------------------------|
D|----------------------------------------------------------------------|
A|-----------------------------4-4-3----------------------------7-7-6---|
E|---4-4-4-4-4-4--4-4-4-4-4-4----------4-4-4-4-4-4-4-4-4-4-4-4----------|
B|----------------------------------------------------------------------|

SECTION F:                                   
G|-------------------------------------------------------------------|
D|-------------------------------------------------------------------|
A|---------4-4--3-----------7-7-6-----------4-4-3---7------------6--*|
E|-4-4-4-4----------4-4-4-4---------4-4-4-4------------0-0-0--8------|
B|-------------------------------------------------------------------|

SECTION G:
G|-----------------------------------------------------------4h5-----3h4---|
D|-------------------------------------------------------4h5-----3h4-------|
A|*--2-2-2-2--3p2-2-2--3p2-2-2-5p2-5p2--2-2-2-2-3p2-3p2-------------------*|
E|-------------------------------------------------------------------------|
B|-------------------------------------------------------------------------|

G|-----------------------------------------------------------2h3-----1p2---|
D|-------------------------------------------------------2h3-----1h2-------|
A|*--0-0-0-0--1p0-0-0--1p0-0-0-3p0-3p0--0-0-0-0-1p0-1p0-------------------*|
E|-------------------------------------------------------------------------|
B|-------------------------------------------------------------------------|

SECTION H:
G|----------------------------------------------------------------------|
D|----------------------------------------------------------------------|
A|-6-6------------------------------------1------------------2-1-1p0---|
E|-----3-2-0-0-0-0-2/-3-0-1--0-0-0-2/-3-0----0-0-0-2/-3-0-1-----------1-|
B|----------------------------------------------------------------------|

SECTION I:
G|-------------------------------------------------------------------|
D|-------------------------------------------------------------------|
A|*--------------------------------1------------------2-1-1p0------*|
E|--0-0-0-0-2/-3-0-1--0-0-0-2/-3-0----0-0-0-2/-3-0-1-----------2-1---|
B|-------------------------------------------------------------------|

SECTION J:
G|---------------------------------------------------------------|
D|---------------------------------------------------------------|
A|*----------------------------------------------------------1---|
E|---0-0-0-0-0-0-0-0--2/-3--0--1---0-0-0-0-0-0-0-0--2/-3--0------|
B|---------------------------------------------------------------|
                                                           
G|--------------------------------------------------------|
D|--------------------------------------------------------|
A|-------------------------------2--1--1--0--------------*|
E|-0-0-0-0-0-0-0-0--2/-3--0--1----------------2---1-------|
B|--------------------------------------------------------|

SECTION K:
G|-------------------------------------------------------------------|
D|----------------------------------------------------------3-2-----|
A|----------------------------------1------------------3-2----------|
E|--0-0-0-0-2/--3-0-1--0-0-0-2/-3-0----0-0-0-2/-3-0-1-------------1--|
B|-------------------------------------------------------------------|

G|------------------------------------------------------------------|
D|---------------------------------------------------------3-2-----|
A|---------------------------------1------------------3-2----------|
E|-0-0-0-0-2/-3--0-1--0-0-0-2/-3-0----0-0-0-2/-3-0-1-------------1--|
B|------------------------------------------------------------------|

SECTION L:
G|--------------------------------------------------------|
D|--------------------------------2--0-2-2-2--------------|
A|*----------------------------2--------------2---1---0---|
E|--------------------------0-----------------------------|
B|--------------------------------------------------------|
                                                             
G|---------------------------------------------------------|
D|---------------------------------------------------------|
A|---------------------------------------------2---1---0--*|
E|--0--0--0--0--0-0-0--0--0---0-0-0--0--0--0---------------|
B|---------------------------------------------------------|
                             3x

SECTION M:
G|----------------------------------------------------------------------|
D|-2--2-2-2-2-2--2-2-2-2--------------------------2--2-2-2-2-2--2-2-2-2-|
A|------------------------2--2-2-2-2-2---2-2-2-2------------------------|
E|----------------------------------------------------------------------|
B|----------------------------------------------------------------------|
                                                                    
G|-------------------------------------------------------------------|
D|------------------------2--2-2-2-2-------------2--2-2-2-2----------|
A|-3--3-3-3-3-3--3-3-3-3--------------2--2-2-2-2------------3--3--3--|
E|-------------------------------------------------------------------|
B|-------------------------------------------------------------------|

END:
G|---------------------------------------------------------|
D|---------------------------------------------------------|
A|---------------------------------------------2---1---0---|
E|--0--0--0--0--0-0-0--0--0--0-0-0--0---0--0---------------|
B|---------------------------------------------------------|

G|-----------------------------------------------------------------------------|
D|-----------------------------------------------------------------------------|
A|---------------------------------------------2~----1~---0~------2~---1~---0~-|
E|--0--0--0--0--0-0-0--0--0--0-0-0--0--0--0------------------------------------|
B|-----------------------------------------------------------------------------|

G|--------------------------------------------------------------*|
D|--------------------------------------------------------------*|
A|----------------------------------------------2~---1~---0~----*|
E|--0--0--0--0--0-0-0--0--0--0-0-0--0--0---0--------------------*|
B|--------------------------------------------------------------*|
Добавлено: 21.05.2012
Другие материалы по этой песне:
  • Аккорды и текст

Страница создана 14.03.2012
http://primanota.ru/atheist/beyond-chords.htm
Привет, Гость.
Предлагаем пройти революционный курс по гитаре.
Подарок от PrimaNota.Ru, забирай!