PrimaNota.ru - самый крупный в мире бесплатный архив песенных текстов, аккордов, табулатур и нот


Aterciopelados - Bolero Falaz - аккорды и текст, таба, видео

Регистрация Запомнить меня
Войти через:  Facebook Google Twitter Vk Yandex Mail.ru

Aterciopelados - Bolero Falaz - аккорды и текст, таба, видео

Печатать
Просмотров: 136
Bolero Falaz
Aterciopelados
I tried to get the timming and chord changes in sinc with the lyrics but
you'll have to listen to the CD. I haven't found anything else by these
guys, I heard them for the first time in down when I lived in Colombia,
I have their second album, but I'd like to listen to anything new they
might have. this is my first tab so if there are any errors please be
so kind as to tell me.... other than that enjoy the song and keep on
"cantando!"

ЎQUE VIVA EL CORRONCHO PIPON!

CHORDS:		        E         F#m       Abm        G#m
[E-------0---- -----2---------4----------3----
B-------0---- -----2---------4----------3----
G-------1----------2---------4----------4----
D-------2----------4---------6----------5----
A-------2---- -----4---------6----------5----
E-------0---- ------2---------4----------3----

 F#         B            B7         C#m
E-----2----------2------------2----------4----
B-----2----------4------------0----------5----
G-----3----------4------------2----------6----
D-----4----------4------------1----------6----
A-----4----------2------------2----------4----
E------2---------2------------0----------4----]
 (I love this Intro... just improv it if it doesn't sound right)
 (clean and slightly soft) acoustic guitar

Intro:		        E	         F#m	      Abm 	     G#m
[E---------0---0-----------2---2--------------4---4----------------3---
B---------0---0-----------2---2--------------4---4----------------3---
G---------1---1-----------2---2--------------4---4----------------4---
D------------------------------------------------------------------------
A--------------------------------------------------------------5---------
E---0-------------0----2-----------2----4--------------4--------------
 F#                B         B7         E
E--------2-------------2--------------2----------------0----------------
B--------2-------------4--------------0----------------0----------------
G--------3---------4------------------2----------------1---------------
D---------------------------------1---------1---------- 2---------------
A----4--------2------------2---------------------------2---------------
E--------------------------------------------------------0---------------]
 (come in loud with chords and lyrics)
 (electric guitar hard and slightly dirty)

E		F#m  Abm          G#m         F#
MAIN RIFF:	Buscas en mis bosillos Pruebas de otro carico
E        F#m          Abm          G#m          F#
pelos en la solapa esta sonrisa me delata
E	F#m	   Abm	               G#m           F#
labial en la camisa mi coartada estб hecha trizas
E	F#m	Abm	          G#m	F#
estoy en evidencia engacar tiene su ciencia

C#m	         B
PRE CHORUS:	estoy hasta la coronilla
C#m		       B
tu no eres mi media costilla
C#m	     B
ni la octava maravilla
C#m	      B

E	   F#m	           B
CHORUS:		mala si si malo si no ni pre----guntes
E	       F#m	             B
ya no soy yo fuera de mi es que me tienes
B       E		     F#m	        Abm	C#m B7
que si vengo que no voy que si estoy que me pierdo
B7      E		     F#m	       Abm	C#m B7
que si tengo que no doy que si estoy que me vengo
E	   F#m	           B
mala si si malo si no ni pre----guntes
E	       F#m	             B
ya no soy yo fuera de mi es que me tienes
B       E		     F#m	        Abm	C#m B7
que si vengo que no voy que si estoy que me pierdo
B7      E		     F#m	       Abm	C#m B7
que si tengo que no doy que si estoy que me vengo

E		F#m  Abm          G#m    F#
MAIN RIFF:	lo siento en tus manos tus caricias me han robado
E		F#m  Abm          G#m    F#
lo huelo en tu boca esos besos ya son de otra
E		F#m  Abm          G#m    F#
quien serб esa infame que no deja que yo te ame
E		F#m  Abm          G#m    F#
si yo la encontrara le partirнa esa cara

C#m	         B
PRE CHORUS:	estoy hasta la coronilla
C#m	        B
tu no eres mi media costilla
C#m	     B
ni la octava maravilla
C#m	     B

E	   F#m	           B
CHORUS:		mala si si malo si no ni pre----guntes
E	       F#m	              B
ya no soy yo fuera de mi es que me tienes
B        E		     F#m	        Abm	C#m B7
que si vengo que no voy que si estoy que me pierdo
B7       E	     F#m	       Abm	C#m B7
que si tengo que no doy que si estoy que me vengo
E	         F#m	      B
te dije no mбs y te cagaste de risa
E	         F#m	      B
te dije no mбs y te cagaste de risa
E	         F#m	      B
te dije no mбs y te cagaste de risa
E	   F#m	           B
 ja ja ja ja.
Добавлено: 16.03.2014
Другие материалы по этой песне:

Страница создана 14.04.2012
http://primanota.ru/aterciopelados/bolero-falaz-chords.htm
Привет, Гость.
Предлагаем пройти революционный курс по гитаре.
Подарок от PrimaNota.Ru, забирай!