PrimaNota.ru - самый крупный в мире бесплатный архив песенных текстов, аккордов, табулатур и нот


Atb - The Fields Of Love - текст песни, таба, видео

Регистрация Запомнить меня
Войти через:  Facebook Google Twitter Vk Yandex Mail.ru

Atb - The Fields Of Love - текст песни, таба, видео

Печатать
Просмотров: 286
Уроки эстрадного вокала в Санкт-Петербурге


this song was a bollocks to tab. it is perfect except for the
last few pedal notes...got a bit lazy there

sully


e-------------------- 3---3-----------------
a-0--0--0--0----0---- ----------------------
d-------------------- ----------------------
g--5---7--9---5---7-- --4---0---------------
b-------------------- ----------------------
e-------------------- ----------------------

e0-------------------
a--0-----------------
d--------5----------
g----5-4-------------
b--------------------
e--------------------


all you have to do is play it wath a reverb echo
type thing. send comments to sully111@hotmail.com

(by the way i wrote the tab from memory so if it is
wrong let me know )

Добавлено: 04.12.2013
Другие материалы по этой песне:
  • Аккорды и текст

Страница создана 19.03.2012
http://primanota.ru/atb/the-fields-of-love-chords.htm
Привет, Гость.
Предлагаем пройти революционный курс по гитаре.
Подарок от PrimaNota.Ru, забирай!