PrimaNota.ru - самый крупный в мире бесплатный архив песенных текстов, аккордов, табулатур и нот


Ataxia - Hands - таба, видео

Регистрация Запомнить меня
Войти через:  Facebook Google Twitter Vk Yandex Mail.ru

Ataxia - Hands - таба, видео

Печатать
Просмотров: 204
Hands by Ataxia

    Q=80

     S S e S S S S S E S   S  S  e  S S  S S  S  E S
||-----------------------|---------------------------|
||o----------------------|---------------------------|
||-----------------------|------11-11-9-11-9---------|
||-------9-9-7-9-7-------|-9-11--------------12-12---|
||o--7-9-----------9-9---|---------------------------|
||-----------------------|---------------------------|


  S S e S S S S S E S   S  S  e  S S  S S  S  E S 4x
|---------------------|---------------------------||
|---------------------|--------------------------o||
|---------------------|------11-11-9-11-9---------||
|-----9-9-7-9-7-------|-9-11--------------12-12---||
|-7-9-----------9-9---|--------------------------o||
|---------------------|---------------------------||


  S  S S S E S S S S E   S  S S S E S S S S E
|----------------7-----|----------------7-----|
|---10-----------------|---10-----------------|
|-7----9-7-7-7-9---9-7-|-7----9-7-7-7-9---9-7-|
|----------------------|----------------------|
|----------------------|----------------------|
|----------------------|----------------------|


  S  S S S E S S S S E   S  S S S E S S S S E
|----------------7-----|----------------7------|
|---10-----------------|---10------------------|
|-7----9-7-7-7-9---9-7-|-7----9-7-7-7-9---9-7--|
|----------------------|-----------------------|
|----------------------|-----------------------|
|----------------------|-----------------------|

there are a lot of fill type things that i didnt tab out, but this is the basic guitar 
in the song.  the second part might be a little off, but its pretty close. enjoy :)


Duration Legend
---------------
W - whole; H - half; Q - quarter; E - 8th; S - 16th
Добавлено: 01.10.2013
Другие материалы по этой песне:
  • Аккорды и текст

Страница создана 01.10.2013
http://primanota.ru/ataxia/hands-chords.htm
Привет, Гость.
Предлагаем пройти революционный курс по гитаре.
Подарок от PrimaNota.Ru, забирай!