PrimaNota.ru - самый крупный в мире бесплатный архив песенных текстов, аккордов, табулатур и нот


Ataris - You Need A Hug - текст песни, таба, бас-таба, видео

Регистрация Запомнить меня
Войти через:  Facebook Google Twitter Vk Yandex Mail.ru

Ataris - You Need A Hug - текст песни, таба, бас-таба, видео

Печатать
Просмотров: 176
-----------------------------------------------------------------------------
                           YOU NEED A HUG - Ataris
-----------------------------------------------------------------------------
Tabbed by: bandgeek10 (Aly Richards)
Email: Punkrawkgurl10@aol.com

Tuning: Standard

Album: End Is Forever

Key:    ~ = let ring
    . or x= palm mute

CHORDS USED:          F     F#    G     Ab    A     E     C
                e-----------------------------------------------|
                B-----------------------------------------------|
                G-----------------------------------------5-----|
                D-----3-----4-----5-----6-----7-----2-----5-----|
                A-----3-----4-----5-----6-----7-----2-----3-----|
                E-----1-----2-----3-----2-----5-----0-----------|

INTRO: First with bass playing these chords 2X

   e--------------------------------------|
   A--------------------------------------|
   B--------------------------------------|
   G-55555555-----------------------------|
   D-55555555-77777777-5555-3333-55555555-|
   A-33333333-77777777-5555-3333-55555555-|
   E----------55555555-3333-1111-33333333-|

THEN GUITARS COME IN: 1X

e--------------------------------------------------------------------------|
B--------------------------------------------------------------------------|
G-55555555----------------------------55555555-----------------------------|
D-55555555-77777777-55555555-33333333-55555555-77777777-55555555-3333-5555-|
A-33333333-77777777-55555555-33333333-33333333-77777777-55555555-3333-5555-|
E----------55555555-33333333-11111111----------55555555-33333333-1111-3333-|

VERSE 1: 1X, palm mute where marked, accent 1st hit of each chord being PMed

e--------------------------------------------------------------------------|
B--------------------------------------------------------------------------|
G-55555555----------------------------55555555-----------------------------|
D-55555555-77777777-55555555-33333333-55555555-77777777-55555555-3333-5555-|
A-33333333-77777777-55555555-33333333-33333333-77777777-55555555-3333-5555-|
E----------55555555-33333333-11111111----------55555555-33333333-1111-3333-|
  P.M...... .......  .......  .......  .......  .......  .......   Strum

"Maybe you should work for sick of it all, or get a job with the L.A.P.D. Did someone 
your ritalin with ephedrine? Don't take your fu**ing problems out on me."


PRE-CHORUS: 1X, listen for strumming pattern

e--------------------------------------------------------------------------|
B--------------------------------------------------------------------------|
G--------------------------------------------------------------------------|
D-7777-6666-55555555-3333-5555-77777777-5555-4444-33333333-2222-5555-3x-5~-|
A-7777-6666-55555555-3333-5555-77777777-5555-4444-33333333-2222-5555-3x-5~-|
E-5555-4444-33333333-1111-3333-55555555-3333-2222-11111111-0000-3333-1x-3~-|
   ...  ...  Strum    ...  ...   Strum   ...  ...   Strum   ...  ...

"I'd buy you a fuzzy little bunny, I'd put you on my Christmas card list. If you'd 
not to take your job so seriously, and realize you don't have to be so pissed."


CHORUS: 2X, Strum

   e--------------------------------------|
   B--------------------------------------|
   G-55555555-----------------------------|
   D-55555555-55555555-7777-5555-33333333-|
   A-33333333-55555555-7777-5555-33333333-|
   E----------33333333-5555-3333-11111111-|

"Life ain't all that bad, life ain't all that bad. Even if Henry Rollins is your dad. 
ain't all that bad, life ain't all that bad. Buck up little camper, don't be sad."


VERSE 2: Same as verse 1, but strum

"Maybe you should go hunting with Ted Nugent, and see how many animals you could kill. 
pay all of my friends just to hang out with you, and take you out to sizzler for a meal."

PRE-CHORUS: Same as 1st time

"I'd take you to my favorite karoke bar, and you could sing let the sun shine in. You 
stomp my a** into oblivion, but that doesn't mean I'll put up with your sh*t."

REPEAT CHORUS

BRIDGE:

   e---------------------------------------------|
   B---------------------------------------------|
   G-5~------------------5~--------5~------------|
   D-5~---7~---3~---5~---5~---5~---5~---7~-------|
   A-3~---7~---3~---5~---3~---5~---3~---7~-------|
   E------5~---1~---3~--------3~--------5~-------|

Then:

   e-----------------------------------|
   B-----------------------------------|
   G-----------------------------------|
   D-3333333333333333-5555555555555555-|
   A-3333333333333333-5555555555555555-|
   E-1111111111111111-3333333333333333-|

REPEAT CHORUS


OUTRO: 2X

   e--------------------------------------|
   B--------------------------------------|
   G-55555555-----------------------------|
   D-55555555-55555555-7777-5555-33333333-|
   A-33333333-55555555-7777-5555-33333333-|
   E----------33333333-5555-3333-11111111-|

END ON:

              e----
              B----
              G-5~-
              D-5~-
              A-3~-
              E----
Добавлено: 18.03.2012
Другие материалы по этой песне:
  • Аккорды и текст

Страница создана 08.03.2012
http://primanota.ru/ataris/you-need-a-hug-chords.htm
Привет, Гость.
Предлагаем пройти революционный курс по гитаре.
Подарок от PrimaNota.Ru, забирай!