PrimaNota.ru - самый крупный в мире бесплатный архив песенных текстов, аккордов, табулатур и нот


Ataris - Not A Worry In The World - текст песни, таба, бас-таба, видео

Регистрация Запомнить меня
Войти через:  Facebook Google Twitter Vk Yandex Mail.ru

Ataris - Not A Worry In The World - текст песни, таба, бас-таба, видео

Печатать
Просмотров: 200
Original Version Tabbed By: Gary(TheAtaris07@aol.com),
Josh(Synchrony7@hotmail.com), and Stephon(stephon@iname.com)

Corrected By: Alex (Nuclear44)
Email: alexev31@aol.com

Seeing as this site had no tab for Not A Worry In The World and that all the tabs
elsewhere on the internet were just wrong, I decided to correct this tab that I
found on ??????.??? ['censored' ;)] and post it here.
P.S. If this tab is not 97% correct, I'm a retard and deserve to be shot.  Enjoy.

PM - Palm mute 
~ - let ring 

Intro:  Guitar 1   (last two chords strummed 2nd time) 
e|--------------------------------------------------------------| 
B|--------------------------------------------------------------| 
G|-44-44--44-44----------------44-44--44-44---------------------| 
D|-44-44--44-44--55-55--44-44--44-44--44-44--55-55--77-77-------|  2x
A|-22-22--22-22--55-55--44-44--22-22--22-22--55-55--77-77-------| 
E|---------------33-33--22-22----------------33-33--55-55-------| 
   PM     PM     PM     PM     PM     PM     PM     PM 

Intro:  Guitar 2 Enters When Guitar 1 Has Played once 
e|--------------------------------------------------------------| 
B|--------------------------------------------------------------| 
G|-4~--------------------------4~-------------------------------| 
D|-x---------------------------x--------------------------------| 
A|-2~--------------------------2~-------------------------------| 
E|---------------------------------------------PICKSLIDE--------| 


Verse:  Both Guitars 
e|-------------------------------------------| 
B|-------------------------------------------| 
G|4-4-4-4-4-4--------------------------------| 
D|4-4-4-4-4-4--5-5-5-5--4-4-4-4----REST------| 
A|2-2-2-2-2-2--5-5-5-5--4-4-4-4--------------| 
E|-------------3-3-3-3--2-2-2-2--------------| 
 Do you remember all the things that we did? 

Verse:  Both Guitars 
e|-------------------------------------------| 
B|-------------------------------------------| 
G|4-4-4-4-4-4--------------------------------| 
D|4-4-4-4-4-4--5-5-5-5--7-7-7-7----REST------| 
A|2-2-2-2-2-2--5-5-5-5--7-7-7-7--------------| 
E|-------------3-3-3-3--5-5-5-5--------------| 
 And what its like to be a kid. 

Verse:  Both Guitars 
e|-------------------------------------------| 
B|-------------------------------------------| 
G|4-4-4-4-4-4--------------------------------| 
D|4-4-4-4-4-4--5-5-5-5--4-4-4-4--------------| 
A|2-2-2-2-2-2--5-5-5-5--4-4-4-4--------------| 
E|-------------3-3-3-3--2-2-2-2--------------| 
 Being young and skipping school. 




Verse:  Both Guitars 
e|-------------------------------------------| 
B|-------------------------------------------| 
G|4-4-4-4-4-4--------------------------------| 
D|4-4-4-4-4-4--5-5-5-5--7-7-7-7--------------| 
A|2-2-2-2-2-2--5-5-5-5--7-7-7-7--------------| 
E|-------------3-3-3-3--5-5-5-5--------------| 
 I guess we must have broken every rule. 

Pre Chorus:  Guitar 1 
e|-----------------------------------------------------------------| 
B|-----------------------------------------------------------------| 
G|---------------------------------7-7-7-7-7-7-7-7-7-7-7-7-7-7-7-7-| 
D|5-5-5-5-5-5-5-5-5-5-5-5-5-5-5-5--7-7-7-7-7-7-7-7-7-7-7-7-7-7-7-7-| 
A|5-5-5-5-5-5-5-5-5-5-5-5-5-5-5-5--5-5-5-5-5-5-5-5-5-5-5-5-5-5-5-5-| 
E|3-3-3-3-3-3-3-3-3-3-3-3-3-3-3-3----------------------------------| 
 I never thought those times would last forever. 

Pre Chorus:  Guitar 2 
e|-----------------------------------------------------| 
B|-----------------------------------------------------| 
G|---------------------------------7--11--12--11--9--11| 
D|5-5-5-5-5-5-5-5-5-5-5-5-5-5-5-5--7--x---x---x---x--x-| 
A|5-5-5-5-5-5-5-5-5-5-5-5-5-5-5-5--5--9---10--9---7--9-| 
E|3-3-3-3-3-3-3-3-3-3-3-3-3-3-3-3----------------------| 
 I never thought those times would last forever.                              
       

Pre Chorus:  Guitar 1 
e|-----------------------------------------------------------------| 
B|-----------------------------------------------------------------| 
G|---------------------------------7-7-7-7-7-7-7-7-7-7-7-7-7-7-7-7-| 
D|5-5-5-5-5-5-5-5-5-5-5-5-5-5-5-5--7-7-7-7-7-7-7-7-7-7-7-7-7-7-7-7-| 
A|5-5-5-5-5-5-5-5-5-5-5-5-5-5-5-5--5-5-5-5-5-5-5-5-5-5-5-5-5-5-5-5-| 
E|3-3-3-3-3-3-3-3-3-3-3-3-3-3-3-3----------------------------------|
 But now that their gone I'm pretty sure we grew up way too fast. 

Pre Chorus:  Guitar 2 
e|--------------------------------------------------------------------| 
B|--------------------------------------------------------------------| 
G|-11--11--11--11---12--12--12--12---11--11--11--11--12--11--12--11--9| 
D|-x---x---x---x----x---x---x---x----x---x---x---x---x---x---x---x---x| 
A|-9---9---9---9----10--10--10--10---9---9---9---9---10--9---10--9---7| 
E|--------------------------------------------------------------------| 
 But now that their gone I'm pretty sure we grew up way too fast 

Pre Chorus:  Guitar 1 
e|--------------------------------------------------------------------| 
B|--------------------------------------------------------------------| 
G|--------------------------------------------------------------------| 
D|4-4-4-4-4-4-4-4-4-4-4-4-4-4-4-4----5-5-5-5-5-5-5-5--4-4-4-4-4-4-4-4-| 
A|4-4-4-4-4-4-4-4-4-4-4-4-4-4-4-4----5-5-5-5-5-5-5-5--4-4-4-4-4-4-4-4-| 
E|2-2-2-2-2-2-2-2-2-2-2-2-2-2-2-2----3-3-3-3-3-3-3-3--2-2-2-2-2-2-2-2-| 
 I've had my wishes on a star, I hope that yours came true. 



Pre Chorus:  Guitar 2 
e|--------------------------------------------------------| 
B|--------------------------------------------------------| 
G|-66666666-6664--6--77777777--7774--7--6-4-3-3-3--333333-| 
D|-xxxxxxxx-xxxx--x--xxxxxxxx--xxxx--x--x-x-x-x-x--xxxxxx-| 
A|-44444444-4442--4--55555555--5552--5--4-2-1-1-1--111111-|
E|--------------------------------------------------------| 
 I've had my wishes on a star, I hope that yours came true. 

Pre Chorus:  Guitar 1 
e|---------------------------------| 
B|---------------------------------| 
G|---------------------------------| 
D|5-5-5-5-5-5-5-5--7-7-7-7-7-7-7-7-| 
A|5-5-5-5-5-5-5-5--7-7-7-7-7-7-7-7-| 
E|3-3-3-3-3-3-3-3--5-5-5-5-5-5-5-5-| 
 Now all I've got is a memory of you. 

Pre Chorus:  Guitar 2
e|---------------------------------| 
B|---------------------------------| 
G|7-7-7-7--9-9-9--12-12-12-12------| 
D|x-x-x-x--x-x-x--x--x--x--x-------| 
A|5-5-5-5--7-7-7--10-10-10-10------| 
E|---------------------------------| 
 Now all I've got is a memory of you. 

Chorus:  Guitar 1
e|--------------------------------------------------------------------| 
B|--------------------------------------------------------------------| 
G|-4-4-4-4-4-4-4-4----------------------------------------------------|
D|-4-4-4-4-4-4-4-4--7-7-7-7-7-7-7-7--5-5-5-5-5-5-5-5--7-7-7-7-7-7-7-7-| 
A|-2-2-2-2-2-2-2-2--7-7-7-7-7-7-7-7--5-5-5-5-5-5-5-5--7-7-7-7-7-7-7-7-| 
E|------------------5-5-5-5-5-5-5-5--3-3-3-3-3-3-3-3--5-5-5-5-5-5-5-5-| 
 Not a worry in... Not a worry in... Not a worry in... 

Chorus:  Guitar 2 
e|--------------------------------------------------------------------| 
B|--------------------------------------------------------------------|
G|11-11-11-11-11-11-11-11-99999999--77777777--99999999----------------|
D|x--x--x--x--x--x--x--x--xxxxxxxx--xxxxxxxx--xxxxxxxx----------------| 
A|9--9--9--9--9--9--9--9--77777777--55555555--77777777----------------| 
E|--------------------------------------------------------------------| 
Not a worry in... Not a Worry in... Not a worry in...

Repeat Intro 

Right after repeated intro:  Both Guitars 
e|--------------------------------------------------------------------| 
B|--------------------------------------------------------------------| 
G|-------------------7-7-7-7-7----------------------------------------| 
D|-5-5-5-5-7--4-4-4--7-7-7-7-7--7-7-----------------------------------| 
A|-5-5-5-5-7--4-4-4--5-5-5-5-5--7-7-----------------------------------| 
E|-3-3-3-3-5--2-2-2-------------5-5-----------------------------------| 





Verse 2:  (Same as Verse 1) 
I remember when you moved away 
You promised me that you'd be back someday 
But times have changed and so have I 
It sucks that friendships end with a goodbye 

Pre Chorus 2:  (Same as Pre Chorus 1) 
I never thought that friendships last forever 
But now that your gone I'm pretty sure 
We end up all the same 

Bridge:  Both Guitars 
e|--------------------------------------------------------------------| 
B|--------------------------------------------------------------------| 
G|--------------------------------------------------------------------| 
D|-4444444444444/5--------4444444444444/5--------4444444444444/5------| 
A|-4444444444444/5--------4444444444444/5--------4444444444444/5------| 
E|-2222222222222/3--------2222222222222/3--------2222222222222/3------| 
 Still I won't say goodbye,                    won't ever say goodbye 

Bridge:  Both Guitars 
e|--------------------------------------------------------------------| 
B|--------------------------------------------------------------------| 
G|--------------------------------------------------------------------| 
D|5-5-5-5--7-7-7-7-7-7-7-7-7-7-7-7-7-7-7-7----------------------------| 
A|5-5-5-5--7-7-7-7-7-7-7-7-7-7-7-7-7-7-7-7----------------------------| 
E|3-3-3-3--5-5-5-5-5-5-5-5-5-5-5-5-5-5-5-5----------------------------| 
         And know that I'll always be your friend. 

Repeat Chorus 2x

Ending:  Both Guitars

Play this with a pulsating rhythm

e|-----------------------------------------------------------------|
B|-----------------------------------------------------------------|
G|4---4---4---4----------------------------------------------------|
D|4---4---4---4----7---7---7---7----5---5---5---5----7---7---7---7-|
A|2---2---2---2----7---7---7---7----5---5---5---5----7---7---7---7-|
E|-----------------5---5---5---5----3---3---3---3----5---5---5---5-|
 Not  a  worry    in  the  world,   Not  a  worry   in  the  world,

e|-----------------------------------------------------------------|
B|-----------------------------------------------------------------|
G|4---4---4---4----------------------------------------------------|
D|4---4---4---4----7---7---7---7----5---5---5---5----7---7---------|
A|2---2---2---2----7---7---7---7----5---5---5---5----7---7---------|
E|-----------------5---5---5---5----3---3---3---3----5---5---------|
 Not  a  worry     in  the  world,  Not  a  worry  in  the...
Добавлено: 12.07.2012
Другие материалы по этой песне:
  • Аккорды и текст

Страница создана 21.04.2012
http://primanota.ru/ataris/not-a-worry-in-the-world-chords.htm
Привет, Гость.
Предлагаем пройти революционный курс по гитаре.
Подарок от PrimaNota.Ru, забирай!