PrimaNota.ru - самый крупный в мире бесплатный архив песенных текстов, аккордов, табулатур и нот


Ataris - Neilhouse - текст песни, таба, видео

Регистрация Запомнить меня
Войти через:  Facebook Google Twitter Vk Yandex Mail.ru

Ataris - Neilhouse - текст песни, таба, видео

Печатать
Просмотров: 163
===========================================================================
                            Neilhouse - *The Ataris*
============================================================================
Por: Jose Luis Contreras (zero_guy@hotmail.com)

pm ---> palm mute

Intro: (x4)

(Guitarra 1)
e|-------------------------------------------------------------------------|
B|-------------------------------------------------------------------------|
G|-------------------------------------9--7-----9--7-----6--6--7-----------|
D|-9--7-----9--7-----6--4-----6--4-----------7--------7-----------9--9-----|
A|-------7--------7--------4--------4--------------------------------------|
E|-------------------------------------------------------------------------|


(Guitarra 2)
e|-------------------------------------------------------------------------|
B|-------------------------------------------------------------------------|
G|------------------------------------7-----------------4----7-------------|
D|-7---------------4------------------7-----------------4----7-------------|
A|-7---------------4------------------5-----------------2----5-------------|
E|-5---------------2-------------------------------------------------------|

Verso 1:PM

It all started out one day when i had nothing more to say to you so i ran
the other way

e|-------------------------------------------------------------------------|
B|-------------------------------------------------------------------------|
G|-------------------------------------7-7-7-7-7-7-7-7---4-4-4-4---7-7-7-7-|
D|-7-7-7-7-7-7-7-7---4-4-4-4-4-4-4-4---7-7-7-7-7-7-7-7---4-4-4-4---7-7-7-7-|
A|-7-7-7-7-7-7-7-7---4-4-4-4-4-4-4-4---5-5-5-5-5-5-5-5---2-2-2-2---5-5-5-5-|
E|-5-5-5-5-5-5-5-5---2-2-2-2-2-2-2-2---------------------------------------|
  
Love is for morons but who's this fucking idiot that I see staring right back
at me?

e|-------------------------------------------------------------------------|
B|-------------------------------------------------------------------------|
G|-------------------------------------7-7-7-7-7-7-7-7---4-4-4-4---7-7-7-7-|
D|-7-7-7-7-7-7-7-7---4-4-4-4-4-4-4-4---7-7-7-7-7-7-7-7---4-4-4-4---7-7-7-7-|
A|-7-7-7-7-7-7-7-7---4-4-4-4-4-4-4-4---5-5-5-5-5-5-5-5---2-2-2-2---5-5-5-5-|
E|-5-5-5-5-5-5-5-5---2-2-2-2-2-2-2-2---------------------------------------|

   
Verso 2:

Will someone tell me what's right or wrong anymore?

e|-------------------------------------------------------------------------|
B|-------------------------------------------------------------------------|
G|------------------------7-7-7-7------------------------------------------|
D|7-7-7---4-4-4---2-2-2---7-7-7-7------------------------------------------|
A|7-7-7---4-4-4---2-2-2---5-5-5-5------------------------------------------|
E|5-5-5---2-2-2---0-0-0----------------------------------------------------|

       
Cause everywhere I go I wonder what I'm searching for.

e|-------------------------------------------------------------------------|
B|-------------------------------------------------------------------------|
G|------------------------7-7-7-7------------------------------------------|
D|7-7-7---4-4-4---2-2-2---7-7-7-7------------------------------------------|
A|7-7-7---4-4-4---2-2-2---5-5-5-5------------------------------------------|
E|5-5-5---2-2-2---0-0-0----------------------------------------------------|

I think of all the times I thought of you and masturbated.

e|-------------------------------------------------------------------------|
B|-------------------------------------------------------------------------|
G|------------------------7-7-7-7------------------------------------------|
D|7-7-7---4-4-4---2-2-2---7-7-7-7------------------------------------------|
A|7-7-7---4-4-4---2-2-2---5-5-5-5------------------------------------------|
E|5-5-5---2-2-2---0-0-0----------------------------------------------------|


e|-------------------------------------------------------------------------|
B|-------------------------------------------------------------------------|
G|--4-4-4-4-4-4-4-4--------7-7-7-7-----------------------------------------|
D|--4-4-4-4-4-4-4-4--------7-7-7-7-----------------------------------------|
A|--2-2-2-2-2-2-2-2--------5-5-5-5-----------------------------------------|
E|-------------------------------------------------------------------------|

And all this preteen shited has got me so frustrated!


e|-------------------------------------------------------------------------|
B|-------------------------------------------------------------------------|
G|-------------------------------------------------------------------------|
D|--7-7-7-7-7----------------------4-4-4-4-4-------------------------------|
A|--7-7-7-7-7----------------------4-4-4-4-4-------------------------------|
E|--5-5-5-5-5----------------------2-2-2-2-2-------------------------------|

Verso 3:

Don't turn around cause there's nothing more for you back there.
I'd send a postcard but it'd say how much that I don't care.

e|-------------------------------------------------------------------------|
B|-------------------------------------------------------------------------|
G|-------------------------------------7-7-7-7-7-7-7-7---4-4-4-4---7-7-7-7-|
D|-7-7-7-7-7-7-7-7---4-4-4-4-4-4-4-4---7-7-7-7-7-7-7-7---4-4-4-4---7-7-7-7-|
A|-7-7-7-7-7-7-7-7---4-4-4-4-4-4-4-4---5-5-5-5-5-5-5-5---2-2-2-2---5-5-5-5-|
E|-5-5-5-5-5-5-5-5---2-2-2-2-2-2-2-2---------------------------------------|

I'm goin east to say the least to see the Queers, how true I'll be
at the Neilhouse but I'll be without you!

e|-------------------------------------------------------------------------|
B|-------------------------------------------------------------------------|
G|-------------------------------------7-7-7-7-7-7-7-7---4-4-4-4---7-7-7-7-|
D|-7-7-7-7-7-7-7-7---4-4-4-4-4-4-4-4---7-7-7-7-7-7-7-7---4-4-4-4---7-7-7-7-|
A|-7-7-7-7-7-7-7-7---4-4-4-4-4-4-4-4---5-5-5-5-5-5-5-5---2-2-2-2---5-5-5-5-|
E|-5-5-5-5-5-5-5-5---2-2-2-2-2-2-2-2---------------------------------------|
  

Intermedio:
e|-------------------------------------------------------------------------|
B|-------------------------------------------------------------------------|
G|------------------4444-4---4444-4---------------------7777-7---7777-7----|
D|7777-7---7777-7---4444-4---4444-4---5555-5---5555-5---7777-7---7777-7----|
A|7777-7---7777-7---2222-2---2222-2---5555-5---5555-5---5555-5---5555-5----|
E|5555-5---5555-5--|PM-|---|PM-|------3333-3---3333-3--|PM-|---|PM-|-------|
 |PM-|    |PM-|                      |PM-|    |PM-|

Don't try to tell me you can't have any fun You played me for a fuckin fool
but now you get to be one...don't go!

e|-------------------------------------------------------------------------|
B|-------------------------------------------------------------------------|
G|------------------4444-4---4444-4---------------------7777-7---7777-7----|
D|7777-7---7777-7---4444-4---4444-4---5555-5---5555-5---7777-7---7777-7----|
A|7777-7---7777-7---2222-2---2222-2---5555-5---5555-5---5555-5---5555-5----|
E|5555-5---5555-5--|PM-|---|PM-|------3333-3---3333-3--|PM-|---|PM-|-------|
 |PM-|    |PM-|                      |PM-|    |PM-|

Outro Parte 1:
(Guitarra 1)

e|-------------------------------------------------------------------------|
B|-------------------------------------------------------------------------|
G|--9---7---6---7---6---4--2-----------------------------------------------|
D|--x---x---x---x---x---x--x-----------------------------------------------|
A|--7---5---4---5---4---2--0-----------------------------------------------|
E|-------------------------------------------------------------------------|

e|-------------------------------------------------------------------------|
B|-------------------------------------------------------------------------|
G|-9-11-12-14-12-----------------------------------------------------------|
D|-x-xx-xx-xx-xx-----------------------------------------------------------|
A|-7-9--10-12-10------------5-5---5-7--------------------------------------|
E|------------------5-5-5-5-----5------------------------------------------|

(Guitarra 2)
e|-------------------------------------------------------------------------|
B|-------------------------------------------------------------------------|
G|-------------------------------------7-7-7-7-7-7-7-7---4-4--4----7-7--7--|
D|-7-7-7-7-7-7-7-7---4-4-4-4-4-4-4-4---7-7-7-7-7-7-7-7---4-4--4----7-7--7--|
A|-7-7-7-7-7-7-7-7---4-4-4-4-4-4-4-4---5-5-5-5-5-5-5-5---2-2--2----5-5--5--|
E|-5-5-5-5-5-5-5-5---2-2-2-2-2-2-2-2--------------------|-PM-|---|-PM-|----|

e|-------------------------------------------------------------------------|
B|-------------------------------------------------------------------------|
G|-------------------------------------7-7-7-7-7-7-7-7---4-4-4-4---7-7-7-7| 
D|-7-7-7-7-7-7-7-7---4-4-4-4-4-4-4-4---7-7-7-7-7-7-7-7---4-4-4-4---7-7-7-7-|
A|-7-7-7-7-7-7-7-7---4-4-4-4-4-4-4-4---5-5-5-5-5-5-5-5---2-2-2-2---5-5-5-5-|
E|-5-5-5-5-5-5-5-5---2-2-2-2-2-2-2-2--------------------------------------| 

Outro Parte 2:
(Guitarra 1)

e|---------------------------------------------------------------------|
B|---------------------------------------------------------------------|
G|-------------------------------------9--7-----9--7-----6--6--7-------|(x4)
D|-9--7-----9--7-----6--4-----6--4-----------7--------7-----------9--9-|
A|-------7--------7--------4--------4----------------------------------|
E|---------------------------------------------------------------------|

(Guitarra 2)
e|-------------------------------------------------------------------------|
B|-------------------------------------------------------------------------|
G|-------------------------------------7-7-7-7-7-7-7-7---4-4-4-4---7-7-7-7-|
D|-7-7-7-7-7-7-7-7---4-4-4-4-4-4-4-4---7-7-7-7-7-7-7-7---4-4-4-4---7-7-7-7-|
A|-7-7-7-7-7-7-7-7---4-4-4-4-4-4-4-4---5-5-5-5-5-5-5-5---2-2-2-2---5-5-5-5-|
E|-5-5-5-5-5-5-5-5---2-2-2-2-2-2-2-2---------------------------------------| 


e|--------------------------------------------------------------------|
B|--------------------------------------------------------------------|
G|---------------------------------------------------4-4-4-4---7-7-7-7|(x2) 
D|----------------------4-4-4-4-4-4-4-4--------------4-4-4-4---7-7-7-7|
A|----------------------4-4-4-4-4-4-4-4--------------2-2-2-2---5-5-5-5|
E|----------------------2-2-2-2-2-2-2-2-------------------------------|
(aqui hay un silencio                  (aqui igual)
 donde se escucha el solo)

Fin:
e|-------|
B|-------|
G|-------|
D|--7----|
A|--7----|
E|--5----|

Eso es todo, esta fácil, solo es cuestion de oirla y tomarle el ritmo.
Dudas, comentarios, quejas, sugerencias... a mi e mail: zero_guy@hotmail.com.

Evaluen las tablaturas!! Es para beneficio de todos...

Добавлено: 14.05.2012
Другие материалы по этой песне:
  • Аккорды и текст

Страница создана 23.04.2012
http://primanota.ru/ataris/neilhouse-chords.htm
Привет, Гость.
Предлагаем пройти революционный курс по гитаре.
Подарок от PrimaNota.Ru, забирай!