PrimaNota.ru - самый крупный в мире бесплатный архив песенных текстов, аккордов, табулатур и нот


Ataris - Life Makes No Sense - текст песни, таба, видео

Регистрация Запомнить меня
Войти через:  Facebook Google Twitter Vk Yandex Mail.ru

Ataris - Life Makes No Sense - текст песни, таба, видео

Печатать
Просмотров: 148
Уроки эстрадного вокала в Санкт-Петербурге
Авторы музыки: Kristopher Roe

-----------------------------------------------------------------
Life Makes No Sense - Ataris
-----------------------------------------------------------------
Tabbed by: Bair
Email: bair_morritt@hotmail.com
Tuning: Standard

**Another one from the Ataris that needed tabbing. 1:40 mins long**

Intro/ Main Riff:
e|------------------------------------------|
B|------------------------------------------|
G|------------------------------------------|
D|--4-4-4-4-4-5-4---------------------------|
A|----------------5-5-5-4-4-5-5-7-5---------|
E|------------------------------------------|

Intro:
e|-------------------------|
B|-------------------------|
G|--7~---------------------|
D|--7~---4~----5~----------|
A|--5~---4~----5~----------|
E|-------2~----3~----------|

Verse:
e|------------------------------------------|
B|------------------------------------------|
G|--7---------------------------------------|
D|--7-----44444444--55555555----------------|
A|--5-----44444444--55555555----------------|
E|--------22222222--33333333----------------|
"Everything is turning grey, but I won't hold my breath today"

e|------------------------------------------|
B|------------------------------------------|
G|--77777777--------------------------------|
D|--77777777--4444--5555--------------------|
A|--55555555--4444--5555--------------------|
E|------------2222--3333--------------------|
"Cause' I'm not scared and to tell the truth I just don't care."

Pre-Chorus:
e|------------------------------------------|
B|------------------------------------------|
G|------------------------------------------|
D|--22222222--44--55555555-(X2)--7777-------|
A|--22222222--44--55555555-------7777-------|
E|--00000000--22--33333333-------5555-------|
"Are you looking for an answer? When you still don't know the question"

Chorus
e|------------------------------------------------|
B|------------------------------------------------|
G|--------------7777--4444--------------77777777--|
D|--5555--7777--7777--4444--5555--7777--77777777--|
A|--5555--7777--5555--2222--5555--7777--55555555--|
E|--3333--5555--------------3333--5555------------|
"It's like lighting candles in the rain, Sometimes life can be a pain"

e|------------------------------------------|
B|------------------------------------------|
G|--------------7777--4444------------------|
D|--5555--7777--7777--4444--5555--7777------|
A|--5555--7777--5555--2222--5555--7777------|
E|--3333--5555--------------3333--5555------|
"Sometimes when you feel afraid, don't give up and run away."

e|------------------------------------------|
B|------------------------------------------|
G|------------------------------------------|
D|--99999999--77777777--555555555555~-------|
A|--99999999--77777777--555555555555~-------|
E|--77777777--55555555--333333333333~-------|
"What's the point in crying when you've done nothing wrong."

-Then Intro & Main Riff
-Then Verse
-Then Pre-Chorus
-Then Chorus
-----------------------------------------------------------------------------
Lyrics:

Everything is turning gray, but I won't hold my breath today
Cause' I'm not scared and to tell the truth I just don't care.
Are you looking for an answer? When you still don't know the question.

It's like lighting candles in the rain-
Sometimes life can be a pain,
But don't give up without a fight.

Sometimes when you feel afraid, don't give up and run away.
Cause' two wrongs don't make a right.
What's the point in crying when you've don nothing wrong.
It was right there all along.

The world's nothing but a lie and everyone is going to die
But what can I say? Just help me make it through today.
You don't need a destination just to go somewhere in life.

It's like throwing feathers at the wind-
They come right back to you again.
So why not give it one more try?

Just cause' things aren't what they seem
It doesn't mean you shouldn't dream
Just don't get your hopes to high.
Cause' when things don't turn out right
You world comes crashing down.
Добавлено: 29.07.2012
Другие материалы по этой песне:
  • Аккорды и текст

Страница создана 05.03.2012
http://primanota.ru/ataris/life-makes-no-sense-chords.htm
Привет, Гость.
Предлагаем пройти революционный курс по гитаре.
Подарок от PrimaNota.Ru, забирай!