PrimaNota.ru - самый крупный в мире бесплатный архив песенных текстов, аккордов, табулатур и нот


Ataris - Let It Go - текст песни, таба, видео

Регистрация Запомнить меня
Войти через:  Facebook Google Twitter Vk Yandex Mail.ru

Ataris - Let It Go - текст песни, таба, видео

Печатать
Просмотров: 173
the Ataris - Let It Go (Anywhere But Here)
easily the funnest song to play, especially with two guitarists.
(scroll down for rhythm)

KEY to tab:
* = play about 10x
# = play about 5x
x = scratch/left hand mute
\ = slide down
/ = slide up
% = pause
~ = let ring
\\ = slide off

**LEAD GUITAR**
"Forgot about that girl..."
e-------------------------------------------------|
B-------------------------------------------------|
G-------9*-11*-9-8-6/8*-9-8-6/8#-99-1111-4*-88-6*-|
D-9*-6*-9--11--x-x-x-x--x-x-x-x--xx--x-x-x--xx-x--|
A-9--6--7---9--7-6-4/6--7-6-4/6--77--9-9-2--66-4--|
E-7--4--------------------------------------------|
"You gotta let it go..."
e--------------------------------------------------------------------------|
B--------------------------------------------------------------------------|
G----99-1111----99-1111-13#-11#-9*----99-1111----99-1111-13#-1515-1616-11*-|
D-9#-99-1111-9#-99-1111--x---x--x--9#-99-1111-9#-99-1111--x---x-x--x-x--x--|
A-9--77--9-9-9--77--9-9-11---9--7--9--77--9-9-9--77--9-9-11--1313-1414--9--|
E-7----------7---------------------7----------7----------------------------|
"My life is..."
e-------------------------------------------|
B-------------------------------------------|
G-------9*-11#-13-15-16*-15-16*-18-16*-8-6*-|
D-9*-6*-9---x---x--x--x---x--x---x--x--x-x--|
A-9--6--7---9--11-13-14--13-14--16-14--6-4--|
E-7--4--------------------------------------|
"I'm gonna tell the..."
e---------------------------|
B---------------------------|
G-9#-11#-444------9#-6#-9-8-|
D-9--11--444-4-2#-x--x--x-x-|
A-7---9--222-4-2--7--4--7-6-|
E------------2-0------------|

e---------------------------------------|
B---------------------------------------|
G-4#-11-9#-4#-11-9#-4#-11-9#-8-6#-99-88-|
D-x---x-x--x---x-x--x---x-x--x-x--xx-xx-|
A-2---9-7--2---9-7--2---9-7--6-4--77-66-|
E---------------------------------------|

e-----------------------------------------|
B-----------------------------------------|
G-4#-11-9#-4#-11-9#-4#-11-9#-8-6#-99-1111-|
D-x---x-x--x---x-x--x---x-x--x-x--xx--x-x-|
A-2---9-7--2---9-7--2---9-7--6-4--77--9-9-|
E-----------------------------------------|

"You gotta let it go..."
e--------------------------------------------------------------------------|
B--------------------------------------------------------------------------|
G----99-1111-----99-1111-13#-11#-9*----99-1111-----99-1111-13#15151616-11*-|
D-9#-99-1111-9-%-99-1111--x---x--x--9#-99-1111-9-%-99-1111--x--x-x-x-x--x--|
A-9--77--9-9-9-%-77--9-9-11---9--7--9--77--9-9-9-%-77--9-9-11-13131414--9--|
E-7----------7----------------------7----------7---------------------------|

e------|
B------|
G------|
D-9~\\-|
A-9-\\-|
E-7-\\-|


**RHYTHM GUITAR**
"Forgot about that girl..."
e--------------| (2x)
B--------------|
G-------9*-11*-|
D-9*-6*-9--11--|
A-9--6--7---9--|
E-7--4---------|
"You gotta let it go..."
e----------------------------------| (2x)
B----------------------------------|
G----99-1111----99-1111-13#-11#-9*-|
D-9#-99-1111-9#-99-1111-13--11--9--|
A-9--77--9-9-9--77--9-9-11---9--7--|
E-7----------7---------------------|
"My life is..."
e--------------| (2x)
B--------------|
G-------9*-11*-|
D-9*-6*-9--11--|
A-9--6--7---9--|
E-7--4---------|
"I'm gonna tell the..."
e-----------------------|
B-----------------------|
G-9#----4#----9#-6#-9-8-|
D-9--4#-4--2#-9--6--9-8-|
A-7--4--2--2--7--4--7-6-|
E----2-----0------------|

e------------------------------------|
B------------------------------------|
G----11-9#----11-9#----11-9#8-----9#-|
D-9#-11-9--9#-11-9--9#-11-9-8-11#-9--|
A-9---9-7--9---9-7--9---9-7-6-11--7--|
E-7--------7--------7----------9-----|

e-----------------------------------------|
B-----------------------------------------|
G----11-9#----11-9#----11-9#8-----99-1111-|
D-9#-11-9--9#-11-9--9#-11-9-8-11#-99-1111-|
A-9---9-7--9---9-7--9---9-7-6-11--77--9-9-|
E-7--------7--------7----------9----------|

"You gotta let it go..."
e-----------------------------------|(2x)
B-----------------------------------|
G----99-1111-----99-1111-13#-11#-9*-|
D-9#-99-1111-9-%-99-1111-13--11--9--|
A-9--77--9-9-9-%-77--9-9-11---9--7--|
E-7----------7----------------------|

e------|
B------|
G------|
D-9~\\-|
A-9-\\-|
E-7-\\-|

tabbed by noneoftheabove
any questions or comments mail to: tish711@hotmail.com
Добавлено: 09.03.2012
Другие материалы по этой песне:
  • Аккорды и текст

Страница создана 09.03.2012
http://primanota.ru/ataris/let-it-go-chords.htm
Привет, Гость.
Предлагаем пройти революционный курс по гитаре.
Подарок от PrimaNota.Ru, забирай!