PrimaNota.ru - самый крупный в мире бесплатный архив песенных текстов, аккордов, табулатур и нот


Ataris - Let It Burn - текст песни, таба, бас-таба, видео

Регистрация Запомнить меня
Войти через:  Facebook Google Twitter Vk Yandex Mail.ru

Ataris - Let It Burn - текст песни, таба, бас-таба, видео

Печатать
Просмотров: 187
The*Ataris - Let it Burn


Intro part 1
e|-----------------------------------------------------------------|
B|-----------------------------------------------------------------|
G|--12~--13x----12~--13~--15x--------------------------------------|
D|---x----xx-----x----x----xx--------------------------------------|
A|--10~--11x----10~--11~--13x--------------------------------------|
E|-----------------------------------------------------------------|

Intro part 2
e|-----------------------------------------------------------------|
B|-----------------------------------------------------------------|
G|---------------------666666666666--------------------------------|
D|--333333333333-------666666666666---66666666--66-6-6x--555-6-5---|
A|--333333333333-------444444444444---66666666--66-6-6x--555-6-5---|
E|--111111111111----------------------44444444--44-4-4x--333-4-3---|

Intro part 3
e|-----------------------------------------------------------------|
B|-----------------------------------------------------------------|
G|---------------------666666666666--------------------------------|
D|--333333333333-------666666666666---66666666--6666--555555--6x---|
A|--333333333333-------444444444444---66666666--6666--555555--6x---|
E|--111111111111----------------------44444444--4444--333333--4x---|

Verse (2x)
e|-----------------------------------------------------------------|
B|-----------------------------------------------------------------|
G|------------------6666666666-------------------------------------|
D|-3333333----------6666666666----6666666------555555--666--555----|
A|-3333333----------4444334444----6666666------555555--666--555----|
E|-1111111------------------------4444444------333333--444--333----|

Chorus 
e|-----------------------------------------------------------------|
B|-----------------------------------------------------------------|
G|-666666-888888-101010101010-555-888-666666-888888--------555-888-|
D|-666666-888888-101010101010-555-888-666666-888888-333333-555-888-|
A|-444444-666666--8-8-8-8-8-8-333-666-444444-666666-333333-333-666-|
E|--------------------------------------------------111111---------|

e|--------------S--------------------------------------------------|
B|--------------C--------------------------------------------------|
G|-666666--888--R-------888-------888--666666666666-888888-999999--|
D|-666666--888--A--666--888--333--888--666666666666-888888-999999--|
A|-444444--666--P--666--666--333--666--444444444444-666666-777777--|
E|--------------E--444-------111-----------------------------------|


Repeat intro (part 2 + 3)
Repeat verse
Repeat chorus

Outro (4x)
e|-----------------------------------------------------------------|
B|-----------------------------------------------------------------|
G|---------666------------------------666--------------------------|
D|-3333-3x-666-6666-6x-5-6-5--3333-3x-666-6666-6x-6-5-6-5-3333-3x--|
A|-3333-3x-444-6666-6x-5-6-5--3333-3x-444-6666-6x-6-5-6-5-3333-3x--|
E|-1111-1x-----4444-4x-3-4-3--1111-1x-----4444-4x-4-3-4-3-1111-1x--|


Have fun!!
Добавлено: 28.06.2012
Другие материалы по этой песне:
  • Аккорды и текст

Страница создана 24.02.2012
http://primanota.ru/ataris/let-it-burn-chords.htm
Привет, Гость.
Предлагаем пройти революционный курс по гитаре.
Подарок от PrimaNota.Ru, забирай!