PrimaNota.ru - самый крупный в мире бесплатный архив песенных текстов, аккордов, табулатур и нот


Ataris - Lately - текст песни, таба, видео

Регистрация Запомнить меня
Войти через:  Facebook Google Twitter Vk Yandex Mail.ru

Ataris - Lately - текст песни, таба, видео

Печатать
Просмотров: 170
Уроки эстрадного вокала в Санкт-Петербурге
the Ataris - Lately (Anywhere But Here)
ok song...great drums. the lead is kinda tough on this one.
(scroll down for rhythm)

KEY to tab:
* = play about 10x
# = play about 5x
x = scratch/left hand mute
\ = slide down
% = pause
ps\\ = pickslide
~ = let ring

**LEAD GUITAR**
"Lately, I've been feeling..."
e------------------------------------------------------------|
B------------------------------------------------------------|
G-7*-9*-11*-7#-6#-7#-6#-7#-9#-1212xxx12*-1212-1414-1212-1111-|
D-x--x---x--x--x--x--x--x--x---x-xxxx-x---x-x--x-x--x-x--x-x-|
A-5--7---9--5--4--5--4--5--7--1010xxx10--1010-1212-1010--9-9-|
E------------------------------------------------------------|
"Lately, I've been thinking..."
e---------------------------------------------|
B---------------------------------------------|
G-7*-11-9*-11*-14-\7*-6-7*-9-11#-16-18-20**\\-|
D-x---x-x---x---x--x--x-x--x--x---x--x--x-----|
A-5---9-7---9--12-\5--4-5--7--9--14-16-17--\\-|
E---------------------------------------------|
"Lately, I've been contemplating..."
e----------------------------------------------------------------------|
B----------------------------------------------------------------------|
G-7#-1111-99-7#-9#-7-%%-------------7#-6#-7#-9#-1212xxx12*-1212x14x12*-|
D-x---x-x-xx-x--x--x-%%-ps\\-5-5-5~-x--x--x--x---x-xxxx-x---x-xx-xx-x--|
A-5---9-9-77-5--7--5---------5-5-5--5--4--5--7--1010xxx10--1010x12x10--|
E----------------------------3-3-3-------------------------------------|
"I try, to let it out..."
e------------------------------------------------|
B------------------------------------------------|
G-7#----------7#----------7#----------12#-11#-7*-|
D-7--7#-9#-5#-7--7#-9#-5#-7--7#-9#-5#--x---x--x--|
A-5--7--9--5--5--7--9--5--5--7--9--5--10---9--5--|
E----5--7--3-----5--7--3-----5--7--3-------------|
"Lately, I've been hoping for..."
e-------------------------------------------------------------|
B-------------------------------------------------------------|
G-7#-6#-9*-12-11*-12-7*-9-11*-12-14#-16-18-19#-18-19*-18-19**-|
D-x--x--x---x--x---x-x--x--x---x--x---x--x--x---x--x---x--x---|
A-5--4--7--10--9--10-5--7--9--10-12--14-16-17--16-17--16-17---|
E-------------------------------------------------------------|
"Lately, I've been thinking about..."
e------------------------------------------------|
B------------------------------------------------|
G-7#-6#-9#-6#-9*-11-7*-9-11*-12-9*----14#-16-----|
D-x--x--x--x--x---x-x--x--x---x-x-12*--x---x-12*-|
A-5--4--7--4--7---9-5--7--9--10-7--x--12--14--x--|
E---------------------------------10---------10--|
"I try, to let it out..."
e---------------------------------------------------|
B---------------------------------------------------|
G-7#----------7#----------7#----------12#-11#-7~-7~-|
D-7--7#-9#-5#-7--7#-9#-5#-7--7#-9#-5#--x---x--x--x--|
A-5--7--9--5--5--7--9--5--5--7--9--5--10---9--5--5--|
E----5--7--3-----5--7--3-----5--7--3----------------|

e-----|
B-----|
G-77\-|
D-xx--|
A-55\-|
E-----|











**RHYTHM GUITAR**
"Lately, I've been feeling..."
e----------------------------------------------------------------------|
B----------------------------------------------------------------------|
G-7*----------7*---------------------7*----------7*--------------------|
D-7--7*-9*-5*-7--7*-55xxx5#-55xxx5#--7--7*-9*-5*-7--7*-55xxx5#-55xxx5#-|
A-5--7--9--5--5--7--55xxx5--55xxx5---5--7--9--5--5--7--55xxx5--55xxx5--|
E----5--7--3-----5--33xxx3--33xxx3------5--7--3-----5--33xxx3--33xxx3--|
"Lately, I've been contemplating..."
e-----------------------------------------|
B-----------------------------------------|
G-7*----7-----------7*--------------------|
D-7--7*-7-%%-5-5-5~-7--7*-55xxx5#-55xxx5#-|
A-5--7--5-%%-5-5-5--5--7--55xxx5--55xxx5--|
E----5-------3-3-3-----5--33xxx3--33xxx3--|
"I try, to let it out..."
e----------------------------------------------|
B----------------------------------------------|
G-7#----------7#----------7#----------7#-------|
D-7--7#-9#-5#-7--7#-9#-5#-7--7#-9#-5#-7--7#-5*-|
A-5--7--9--5--5--7--9--5--5--7--9--5--5--7--5--|
E----5--7--3-----5--7--3-----5--7--3-----5--3--|
"Lately, I've been hoping for..."
e----------------------------------------------------------------------|
B----------------------------------------------------------------------|
G-7*----------7*---------------------7*----------7*--------------------|
D-7--7*-9*-5*-7--7*-55xxx5#-55xxx5#--7--7*-9*-5*-7--7*-55xxx5#-55xxx5#-|
A-5--7--9--5--5--7--55xxx5--55xxx5---5--7--9--5--5--7--55xxx5--55xxx5--|
E----5--7--3-----5--33xxx3--33xxx3------5--7--3-----5--33xxx3--33xxx3--|
"I try, to let it out..."
e-------------------------------------------------|
B-------------------------------------------------|
G-7#----------7#----------7#----------7#-------7~-|
D-7--7#-9#-5#-7--7#-9#-5#-7--7#-9#-5#-7--7#-5~-7--|
A-5--7--9--5--5--7--9--5--5--7--9--5--5--7--5--5--|
E----5--7--3-----5--7--3-----5--7--3-----5--3-----|

e-----|
B-----|
G-77\-|
D-77\-|
A-55\-|
E-----|

tabbed by noneoftheabove
any questions or comments mail to: tish711@hotmail.com
Добавлено: 03.06.2012
Другие материалы по этой песне:
  • Аккорды и текст

Страница создана 18.04.2012
http://primanota.ru/ataris/lately-chords.htm
Привет, Гость.
Предлагаем пройти революционный курс по гитаре.
Подарок от PrimaNota.Ru, забирай!