PrimaNota.ru - самый крупный в мире бесплатный архив песенных текстов, аккордов, табулатур и нот


Ataris - Clara - текст песни, таба, видео

Регистрация Запомнить меня
Войти через:  Facebook Google Twitter Vk Yandex Mail.ru

Ataris - Clara - текст песни, таба, видео

Печатать
Просмотров: 154
the Ataris - Clara (Anywhere But Here)
awesome song, if anyone wants bass tabs for this record, email me.
(scroll down for rhythm)

KEY to tab:
~ = let ring
* = play about 5x
x = scratch/left hand mute
% = pause
/ = slide up

**LEAD GUITAR**
intro
e------------------------------------------|
B------------------------------------------|
G-12~--12*-9*-12*-11*-12~--12*-9*-5*-44-55-|
D-12---12--x---x---x--12---12--x--x--xx-xx-|
A-10---10--7--10---9--10---10--7--3--22-33-|
E------------------------------------------|
"I saw you crying..."/"So everything's fine..."
e---------------------------------------------------------------------------|
B---------------------------------------------------------------------------|
G-9*-4*-5*-7*--9*-4*-5*-1212-77--9*-4*-5*-7*--9*-4*-55-4/5-55-4/5-55-4/5-55-|
D-x--x--x--x---x--x--x---x-x-xx--x--x--x--x---x--x--xx-x-x-xx-x-x-xx-x-x-xx-|
A-7--2--3--5---7--2--3--1010-55--7--2--3--5---7--2--33-2/3-33-2/3-33-2/3-33-|
E---------------------------------------------------------------------------|
"Clara, where are you..."/"So you say your..."
e-------------------------------------------|
B-------------------------------------------|
G-xx-12**-xx-7**-xx-10*-1010-99-xx-5*-55-77-|
D-xx-12---xx-7---xx-10---x-x-xx-xx-5--xx-xx-|
A-xx-10---xx-5---xx--8---8-8-77-xx-3--33-55-|
E-------------------------------------------|
"Did you go..."/"Standing there..."
e---------------------------------------------------------|
B---------------------------------------------------------|
G-xx-12**-xx-7**-xx-10*-1010-99---------------------------|
D-xx-12---xx-7---xx-10---x-x-xx-1010-10-10-10-10-10-12-12-|
A-xx-10---xx-5---xx--8---8-8-77-1010-10x10x10x10x10x12x12-|
E--------------------------------8-8--8x-8x-8x-8x-8x10x10-|
REPEAT ALL
then play this
e-----
B-----
G-12~-
D-12--
A-10--
E-----



**RHYTHM GUITAR**
intro
e----------------|(2x)
B----------------|
G-----12*-9*-5**-|
D-5~--12--9--5---|
A-5---10--7--3---|
E-3--------------|
"I saw you crying..."/"So everything's fine..."
e---------------------------------------------------------|
B---------------------------------------------------------|
G-9*----5*-7*--9*----5*-1212-------9*----5*-7*--9*----5**-|
D-9--9*-5--7---9--9*-5--1212-1212--9--9*-5--7---9--9*-5---|
A-7--9--3--5---7--9--3--1010-1212--7--9--3--5---7--9--3---|
E----7------------7----------1010-----7------------7------|
"Clara, where are you..."/"So you say your..."
e--------------------------------------------------------------|
B--------------------------------------------------------------|
G---------7**---------5**---------7**------------5-5-5-5-5-5-5-|
D-%-5**-%-7---%-3**-%-5---%-5**-%-7---%-3**-%-55-5x5x5x5x5x5x5-|
A-%-5---%-5---%-3---%-3---%-5---%-5---%-3---%-33-3x3x3x3x3x3x3-|
E---3-----------1-----------3-----------1----------------------|
REPEAT ALL
then play this
e----
B----
G----
D-5~-
A-5--
E-3--

tabbed by noneoftheabove
any questions or comments mail to: tish711@hotmail.com
Добавлено: 11.04.2012
Другие материалы по этой песне:
  • Аккорды и текст

Страница создана 19.03.2012
http://primanota.ru/ataris/clara-chords.htm
Привет, Гость.
Предлагаем пройти революционный курс по гитаре.
Подарок от PrimaNota.Ru, забирай!