PrimaNota.ru - самый крупный в мире бесплатный архив песенных текстов, аккордов, табулатур и нот


Ataris - Bite My Tongue - текст песни, таба, видео

Регистрация Запомнить меня
Войти через:  Facebook Google Twitter Vk Yandex Mail.ru

Ataris - Bite My Tongue - текст песни, таба, видео

Печатать
Просмотров: 127
the Ataris - Bite My Tongue (Anywhere But Here)
great opening to a great record. well here's the tab
(scroll down for rhythm)

KEY to tab:
* = play 3-5x
x = scratch
% = pause
ps\\ = pickslide

**LEAD GUITAR**
"What can I"
e-------------|
B-------------|
G----------10-|
D-88888888-10-|
A-88888888--8-|
E-66666666----|
"say?  I'll bite my tongue..."
e----------------------------------------|
B----------------------------------------|
G-15-(x12)---141414141415151717-15-(x12)-|
D--x----------x-x-x-x-x-x-x-x-x--x-------|
A-13---------121212121213131515-13-------|
E----------------------------------------|
"What can I do when..."
e------------------------------|
B------------------------------|
G----------8*-----8*7------10*-|
D-8*-3*-6*-8--10*-8-7-%-8*--x--|
A-8--3--6--6--10--6-5-%-8---8--|
E-6--1--4------8--------6------|
"And I don't wanna..."
e----------------------------------------------|
B----------------------------------------------|
G-8*-10*-15151515-1414-1515--8*-10*------------|
D-x---x---x-x-x-x--x-x--x-x--x---x--88-8-88-8*-|
A-6---8--13131313-1212-1313--6---8--88x8x88-8--|
E-----------------------------------66x6x66-6--|
"When someday I'll just..."
e------------------------------------------------|
B------------------------------------------------|
G-8*-10*-1515-1514-1212\77--8*-101010--------10*-|
D-x---x---x-x--x-x--x-x-xx--x---x-x-x--87-8*-10--|
A-6---8--1313-1312-1010\55--6---8-8-8--87-8---8--|
E--------------------------------------65-6------|
"When's the right time?..."
e----------------------------------------| (2x)
B----------------------------------------|
G-15-(x12)---141414141415151717-15-(x12)-|
D--x----------x-x-x-x-x-x-x-x-x--x-------|
A-13---------121212121213131515-13-------|
E----------------------------------------|
"I know that you..."
e--------------------------____(fast)____------------------|
B-pm, grad release-----------------------------------------|
G-------------------8*-10*-88-7-5-33-5-78-8*---------------|
D-3333333333333333--x---x--xx-x-x-xx-x-xx-x--3*-88-8-88-8*-|
A-3333333333333333--6---8--66-5-3-11-3-56-6--x--88x8x88-8--|
E-1111111111111111---------------------------1--66x6x66-6--|
"You're my best..."
e--------------------------------------------------------|
B--------------------------------------------------------|
G-8*-10*-15-1515-14-1414-12*-8*-10*-12**-8*-10*----------|
D-x---x---x--x-x--x--x-x--x--x---x---x---x---x--87-%-8**-|
A-6---8--13-1313-12-1212-10--6---8--10---6---8--87-%-8---|
E-----------------------------------------------65---6---|
"I'd bring you..."
e-------------------------------------------|
B-------------------------------------------|
G-----------ps\\----------------8-8-8-8-8-8-|
D-8-%%-6-%%------10101010-1010--8-8-8-8-8-8-|
A-8-%%-6-%%------10101010-1010--6-6-5-6-8-6-|
E-6----4----------8-8-8-8--8-8--------------|
"No more waking up..."
e--------------------------|
B--------------------------|
G---------5**-888-877-88---|
D-8**-6**-x---xxx-xxx-xx---|
A-8---6---3---666-655-66---|
E-6---4--------------------|
"..."
e------------------------------------------------------------|
B------------------------------------------------------------|
G-1010-1012-10*-1515-1514-10*-1010-1012-10*-1514-15*-17*-15*-|
D--x-x--x-x--x---x-x--x-x--x---x-x--x-x--x---x-x--x---x---x--|
A--8-8--810--8--1313-1312--8---8-8--810--8--1312-13--15--13--|
E------------------------------------------------------------|
"..."
e----------------------------------------------------------------|
B----------------------------------------------------------------|
G-1010-1012-10*-1515-1514-10*-1010-1012-10*-1514-15*-17*-15*-14*-|
D--x-x--x-x--x---x-x--x-x--x---x-x--x-x--x---x-x--x---x---x---x--|
A--8-8--810--8--1313-1312--8---8-8--810--8--1312-13--15--13--12--|
E----------------------------------------------------------------|
ending
e-------------------|
B-------------------|
G-15---------15-\\\-|
D--x----------x-----|
A-13---------13-\\\-|
E-------------------|



**RHYTHM GUITAR**
"What can I"
e-------------|
B-------------|
G----------10-|
D-88888888-10-|
A-88888888--8-|
E-66666666----|
"say?  I'll bite my tongue..."
e--------------------------------------------|
B--------------------------------------------|
G-----------8**----10*----8*-----8*------10*-|
D-8**-5*-3*-8---8*-10--6*-8--10*-8--%-8*-10--|
A-8---5--3--6---8---8--6--6--10--6--%-8---8--|
E-6---3--1------6------4------8-------6------|
"And I don't wanna...
e-------------------------------------------------------------------|
B-------------------------------------------------------------------|
G-8*-10*-----8*-10*------------8*-10*-15*-1212-----8*-1010------10*-|
D-8--10--8**-8--10--88-8-88-8*-8--10--15--12121212-8--1010-%-8*-10--|
A-6---8--8---6---8--88x8x88-8--6---8--13--10101212-6---8-8-%-8---8--|
E--------6----------66x6x66-6-----------------1010-----------6------|
"When's the right time?..."
e---------------| (2x)
B---------------|
G-----------8**-|
D-8**-5*-3*-8---|
A-8---5--3--6---|
E-6---3--1------|
"I know that you..."
e---------------------------------------------|
B-pm, grad release----------------------------|
G------------------3*--------8*---------------|
D-3333333333333333-3--3*-8**-8--3*-88-8-88-8*-|
A-3333333333333333-1--3--8---6--3--88x8x88-8--|
E-1111111111111111----1--6------1--66x6x66-6--|
"You're my best..."
e-----------------------------------------------------|
B-----------------------------------------------------|
G-8*-10*-15-1515-14-1414-12*-8*-10*-12**-8*-10*-------|
D-8--10--15-1515-14-1414-12--8--10--12---8--10--%-8**-|
A-6---8--13-1313-12-1212-10--6---8--10---6---8--%-8---|
E-------------------------------------------------6---|
"I'd bring you..."
e--------------------------------------|
B--------------------------------------|
G--------------------------8-8-8-8-8-8-|
D-8-%%-6-%%-10101010-1010--8-8-8-8-8-8-|
A-8-%%-6-%%-10101010-1010--6-6-6-6-6-6-|
E-6----4-----8-8-8-8--8-8--------------|
"No more waking up..."
e------------------|
B------------------|
G--------------8**-|
D-8**-6**-10**-8---|
A-8---6---10---6---|
E-6---4----8-------|
"..."
e-------------------------------------------|
B-------------------------------------------|
G-xxx----8*7xxx----8*7xxx----8*7-5*-888-777-|
D-xxx-8*-8-7xxx-8*-8-7xxx-8*-8-7-5--888-777-|
A-xxx-8--6-5xxx-8--6-5xxx-8--6-5-3--666-555-|
E-----6---------6---------6-----------------|
"..."
e----------------------------------------------|
B----------------------------------------------|
G-xxx----8*7xxx----8*7xxx----8*7-5*-888-101010-|
D-xxx-8*-8-7xxx-8*-8-7xxx-8*-8-7-5--888-101010-|
A-xxx-8--6-5xxx-8--6-5xxx-8--6-5-3--666--8-8-8-|
E-----6---------6---------6--------------------|
ending
e---------------|
B---------------|
G---------------|
D--8---------8\-|
A--8---------8\-|
E--6---------6\-|

tabbed by noneoftheabove
any questions or comments mail to: tish711@hotmail.com
Добавлено: 23.05.2012
Другие материалы по этой песне:
  • Аккорды и текст

Страница создана 09.05.2012
http://primanota.ru/ataris/bite-my-tongue-chords.htm
Привет, Гость.
Предлагаем пройти революционный курс по гитаре.
Подарок от PrimaNota.Ru, забирай!