PrimaNota.ru - самый крупный в мире бесплатный архив песенных текстов, аккордов, табулатур и нот


Ataris - Ben Lee - текст песни, таба, видео

Регистрация Запомнить меня
Войти через:  Facebook Google Twitter Vk Yandex Mail.ru

Ataris - Ben Lee - текст песни, таба, видео

Печатать
Просмотров: 179
Уроки эстрадного вокала в Санкт-Петербурге
-----------------------------------------------------------------
Ben Lee - The Ataris
-----------------------------------------------------------------
Tabbed by: Bair
Email: bair_morritt@hotmail.com
Tuning: Standard

**This can also be played with barre chords for the acoustic version.**

Intro:
e|-------------------------------------------------------|
B|-------------------------------------------------------|
G|-XXXX-7777--7777--4444--2222------------2222-4-6-------|
D|-XXXX-7777--7777--4444--2222--55555555--2222-4-6-(X2)--|
A|-XXXX-5555--4444--2222--0000--55555555--0000-2-4-------|
E|------------------------------33333333-----------------|

Verse:
e|-------------------------------------------------------|
B|-------------------------------------------------------|
G|-XXXX-7777--7777--4444--2222------------2222-4-6-------|
D|-XXXX-7777--7777--4444--2222--55555555--2222-4-6-(X2)--|
A|-XXXX-5555--4444--2222--0000--55555555--0000-2-4-------|
E|------------------------------33333333-----------------|
"I never met someone so jaded, your music's really over rated"

Chorus:
e|--------------------------------------------------|
B|--------------------------------------------------|
G|--------2222--4444--7777--------2222--4444--2222--|
D|--5555--2222--4444--7777--5555--2222--4444--2222--|
A|--5555--0000--2222--5555--5555--0000--2222--0000--|
E|--3333--------------------3333--------------------|
"a lot goes on but nothing happens..."

e|------------------------------------------|
B|------------------------------------------|
G|--------2222--4444--7777------------------|
D|--5555--2222--4444--7777------------------|
A|--5555--0000--2222--5555------------------|
E|--3333------------------------------------|
"to tell you that your 15 minutes of fame are almost up"

e|----------------------|
B|----------------------|
G|----------------------|
D|--5555--7777-7--------|
A|--5555--7777-7--------|
E|--3333--5555-5--------|
"yea one more thing, Ben Lee you suck"

Pre-Verse:
e|----------------------|
B|----------------------|
G|--7777--7777----------|
D|--7777--7777----------|
A|--5555--5555----------|
E|----------------------|

-Then Verse
-Then Chorus
-Then Pre-Verse
-Then Verse

Ending
e|----------------------|
B|----------------------|
G|---7------------------|
D|---7-(Let-RING)-------|
A|---5------------------|
E|----------------------|

I never met someone so jaded
your music's really over rated
nothing but a lot of pretentious noise
I know that Claire Danes is your chick
to me you're just some ugly prick who got lucky
cause he knew the Beastie Boys
and I cant stand it

a lot goes on but nothing happens
but this time that's not true
i wrote this song for you
to tell you that your 15 minutes of fame are almost up
yea one more thing, Ben Lee you suck

Bob Dylan must be kinda pissed
cause you've been writing all his hits
packaged and reprocessed for the world
I'd love to kick you in the face
break your legs and throw you from a train
cause you're such a fucking girl
and I cant stand it

I guess this song's come to an end
I'll say good bye until we meet again
you better stay out of my town
cause if i had way
I'd call up Snoop, Ice cube, and Dr. Dre
we'd come and beat you down
Добавлено: 24.06.2012
Другие материалы по этой песне:
  • Аккорды и текст

Страница создана 20.06.2012
http://primanota.ru/ataris/ben-lee-chords.htm
Привет, Гость.
Предлагаем пройти революционный курс по гитаре.
Подарок от PrimaNota.Ru, забирай!