PrimaNota.ru - самый крупный в мире бесплатный архив песенных текстов, аккордов, табулатур и нот


Ataris - Anderson - текст песни, таба, видео

Регистрация Запомнить меня
Войти через:  Facebook Google Twitter Vk Yandex Mail.ru

Ataris - Anderson - текст песни, таба, видео

Печатать
Просмотров: 141
The Ataris
Anderson Guitar Tab
from the Album "...Anywhere but here" (remastered)

transcribed by Daniel Becker
dietoskate@gmx.net

Intro:
1st guitar: (listen to CD for strumming pattern)
e|------------------------------------------------------------------|
B|------------------------------------------------------------------|
G|--5--------------------2-4-5--------------------------------------|
D|--5----------5---------2-4-5-------3-3-3-3------------------------|
A|--3----------5---------0-2-3-------3-3-3-3------------------------|
E|-------------3---------------------1-0-1-0------------------------|

e|------------------------------------------------------------------|
B|------------------------------------------------------------------|
G|--5--------------------2------------------------------------------|
D|--5----------5---------2------------------------------------------|
A|--3----------5---------0------------------------------------------|
E|-------------3----------------------------------------------------|

1st Bridge:
1st guitar:
e|-------------------------------------------------------------------|
B|-------------------------------------------------------------------|
G|---------2-------------------------------2-------------------------|
D|--5------2------3-------3-3-3-3--5-------2-------3--------3-3-3-3--|
A|--5------0------3-------3-3-3-3--5-------0-------3--------3-3-3-3--|
E|--3-------------1-------1-0-1-0--3---------------1--------1-0-1-0--|

2nd guitar:
e|------------------------------------------------------------------------|
B|------------------------------------------------------------------------|
G|-12-----14-----10---------------16------17------14------------------12--|
D|--x------x------x----------------x-------x-------x-------------------x--|
A|-10-----12------8---------------14------15------12------------------10--|
E|------------------------------------------------------------------------|

1st Verse:
1st guitar goes on, 2nd guitar same as 1st

1st Chorus:
both guitars: 2x
e|------------------------------------------------------------------|
B|------------------------------------------------------------------|
G|--5--------------------2-4-5--------------------------------------|
D|--5----------5---------2-4-5-------3-3-3-3------------------------|
A|--3----------5---------0-2-3-------3-3-3-3------------------------|
E|-------------3---------------------1-0-1-0------------------------|

e|------------------------------------------------------------------|
B|------------------------------------------------------------------|
G|--5--------------------2------------------------------------------|
D|--5----------5---------2------------------------------------------|
A|--3----------5---------0------------------------------------------|
E|-------------3----------------------------------------------------|

2nd Bridge:
1st guitar:
e|---------------------------------------------------------------------|
B|---------------------------------------------------------------------|
G|---------2--------------------------------2--------------------------|
D|--5------2-------3-------3-3-3-3--5-------2--------3--------3-3-3-3--|
A|--5------0-------3-------3-3-3-3--5-------0--------3--------3-3-3-3--|
E|--3--------------1-------1-0-1-0--3----------------1--------1-0-1-0--|

2nd guitar:
e|------------------------------------------------------------------------|
B|------------------------------------------------------------------------|
G|-12-----14------10-9-10----------16------17--------12-14-10---------12--|
D|--x------x-------x-x--x-----------x-------x---------x--x--x----------x--|
A|-10-----12-------8-7--8----------14------15--------10-12--8---------10--|
E|------------------------------------------------------------------------|

2nd Verse: same as 1st

2nd chorus: same as 1st

Interlude: both guitars 4x palm muted
e|------------------------------------------------------------------|
B|------------------------------------------------------------------|
G|--2----------5----------------------------------------------------|
D|--2----------5---------3----------7-------------------------------|
A|--0----------3---------3----------7-------------------------------|
E|-----------------------1----------5-------------------------------|

3rd Bridge:
1st guitar:
e|------------------------------------------------------------------------|
B|------------------------------------------------------------------------|
G|---------2-----S---------------------------2-------S--------------------|
D|--5------2-----T--3-------3-3-3-3--5-------2-------T--3--------3-3-3-3--|
A|--5------0-----O--3-------3-3-3-3--5-------0-------O--3--------3-3-3-3--|
E|--3------------P--1-------1-0-1-0--3---------------P--1--------1-0-1-0--|

2nd guitar:
e|------------------------------------------------------------------------|
B|------------------------------------------------------------------------|
G|-12-----14-------10---------------12------14---------10-----------------|
D|--x------x--------x----------------x-------x----------x-----------------|
A|-10-----12--------8---------------10------12----------8-----------------|
E|------------------------------------------------------------------------|

3rd Verse same as 1st
3rd Chorus same as 1st

End

please visit www.wishesonaplane.de

thanks
     
Добавлено: 11.12.2013
Другие материалы по этой песне:
  • Аккорды и текст

Страница создана 15.07.2012
http://primanota.ru/ataris/anderson-chords.htm
Привет, Гость.
Предлагаем пройти революционный курс по гитаре.
Подарок от PrimaNota.Ru, забирай!