PrimaNota.ru - самый крупный в мире бесплатный архив песенных текстов, аккордов, табулатур и нот


Atahualpa Yupanqui - La Pobrecita - таба, видео

Регистрация Запомнить меня
Войти через:  Facebook Google Twitter Vk Yandex Mail.ru

Atahualpa Yupanqui - La Pobrecita - таба, видео

Печатать
Просмотров: 129
Авторы музыки: Atahualpa Yupanqui

LA POBRECITA - Atahualpa Yupanqui (1908-1992)

atahualpa@libertysurf.fr
Trans. Nikolaus Reimann


E||------5----5-----5--|------5----5-----5--|------7----7-----7--|
B||--------5-----5-----|--------5-----5-----|--------6-----6-----|
G||--------5-----5-----|--------5-----5-----|--------7-----7-----|
D||--------------------|--0-----------------|--------------------|
A||--0-----------------|--------------------|--------------------|
E||--------------------|--------------------|--0-----------------|

------4----4-----4--|------5----5----------|------5----5----------|
--------3-----3-----|--------5-------------|--------5-------------|
--------4-----4-----|--------5-------------|--------5-------------|
--------------------|--------------3-3h2-2-|--------------3-3h2-2-|
--------------------|--0-------------------|--0-------------------|
--0-----------------|----------------------|----------------------|

------4----4----------|-------------7--12----|--5----------0--|
--------3-------------|----------9-----------|--5-------------|
--------4-------------|--------7-------------|--5-------------|
--------------3-3h2-2-|------9---------------|--7-------------|
----------------------|----7-----------------|--7-------------|
--0-------------------|--0-------------------|--5-------------|

|---5---5----5-----5--|--5---5----5-----5--|--8----7-5-----4--5--|
|---------------------|--------------------|--10---8-6-----5--6--|
|*--------------------|--------------------|---------------------|
|*--------------------|--0-----2-----3-----|------------6--------|
|---0-----3-----4-----|--------------------|--0------------------|
|---------------------|--------------------|---------------------|

--0-------------------|--------0-------0-------1-|--0---4-4--4-----5--|
------1----1----0-1-3-|------1-------0-------1---|--------5--------6--|
--------2-----2-------|----2-------0-------2-----|--------------------|
--------2-------------|--------------------------|--------6-----7-----|
--0-------------------|--0-----------------------|--------------------|
----------------------|----------3-------1-------|--0-----------------|

--7---0-0--0--------|--0-------------------|--------0-------0-------1-|
--9--------------3--|------1----1----0-1-3-|------1-------0-------1---|
--------------------|--------2-----2-------|----2-------0-------2-----|
--9-----------------|--------2-------------|--------------------------|
--------------------|--0-------------------|--0-----------------------|
--0-----2-----4-----|----------------------|----------3-------1-------|

------4-4--4--5--7--|--7---0----0--------|--0--------------0---||
--------5-----6--9--|--8-----3--------3--|------1----1---------||
--------------------|--------------------|--------2-----------*||
--------6-----7--9--|--------------------|--------2-----------*||
--------------------|--------------------|--0-----------3------||
--0-----------------|--0-----2-----4-----|---------------------||

--0--------------8---|--8----7-5--4-----5--|--0-----------------0-|
------1----1-----10--|--10---8-6--5-----6--|--1--1-----1------1---|
--------2------------|---------------------|--0-----0-------0-----|
--------2------------|---------7--6--7-----|--2-----2-----2-------|
--0-----------0------|--0------------------|--3-------------------|
---------------------|---------------------|----------------------|

----------------------------|----------------------|--------0-------0-------1-|
-----10---8---6---5---4---5-|--1-------------0-1-3-|------1-------0-------1---|
--10----9---7---5---4---5---|------2----2--2-------|----2-------0-------2-----|
----------------------------|--------2-------------|--------------------------|
----------------------------|--0-------------------|--0-----------------------|
----------------------------|----------------------|----------3-------1-------|

------4-4--4--5--7--|--7--0--0--2--------|--0-------------------|
--------5-----7--9--|--8--------------3--|------1----1----0-1-3-|
--------------------|--------------------|--------2-----2-------|
--------6-----7--9--|--------------------|--------2-------------|
--------------------|--------------------|--0-------------------|
--0-----------------|--0-----2-----4-----|----------------------|

-------------------------|------4-4-----5--7--|--7---0-0--0--------|
-------------------------|--------5--6--7--9--|--8--------------3--|
-------------------------|--------------------|--------------------|
-------------------1-2-4-|--------6-----7--9--|--------------------|
-----------2-3-4-5-------|--------------------|--------------------|
---0-2-4-5---------------|--0-----------------|--0-----2-----4-----|

---------------||
--1------------||
--2------------||
--2------------||
--0------------||
---------------||

Добавлено: 16.07.2012
Другие материалы по этой песне:

Страница создана 21.04.2012
http://primanota.ru/atahualpa-yupanqui/la-pobrecita-chords.htm
Привет, Гость.
Предлагаем пройти революционный курс по гитаре.
Подарок от PrimaNota.Ru, забирай!