PrimaNota.ru - самый крупный в мире бесплатный архив песенных текстов, аккордов, табулатур и нот


Atahualpa Yupanqui - La Finadita - таба, видео

Регистрация Запомнить меня
Войти через:  Facebook Google Twitter Vk Yandex Mail.ru

Atahualpa Yupanqui - La Finadita - таба, видео

Печатать
Просмотров: 119
"La Finadita"
Benicio Y Julian Diaz / Atahualpa Yupanqui
Transciption : Carlos Roldan
TablEdit : Gilbert Durand

 |        |       |       |        |       |       |        
|--------|7-----------10------8---|7-----------10--9p--10--|
|3/------|8-----------12------10--|8-----------12--10p-12--|
|--------|------------------------|------------------------|
|--------|--------0-------0-------|--------0-------0-------|
|--------|0-----------------------|0-----------------------|
|--------|------------------------|------------------------|
 
 |       |       |        |       |       |        |       |       |        
|----7-------5-------8---|7-----------------------|7-----------10------8---|
|----8-------7-------10--|8---------------3/------|8-----------12------10--|
|------------------------|------------------------|------------------------|
|--------0-------0-------|--------0-------0-------|--------0-------0-------|
|------------------------|0-----------------------|0-----------------------|
|0-----------------------|------------------------|------------------------|
 
 |       |       |        |       |       |        |       |       |        
|7-----------10--9p--10--|----7-------5-------8---|7---------------7-------|
|8-----------12--10p-12--|----8-------7-------10--|8---------------8-------|
|------------------------|------------------------|------------------------|
|--------0-------0-------|--------0-------0-------|--------0-------0-------|
|0-----------------------|------------------------|0-----------------------|
|------------------------|0-----------------------|------------------------|
 
 |       |       |        |       |       |        |       |       |        
|----10--9---10--9---10--|----7-------10--9---10--|----9---10--12----------|
|----12--10--12--10--12--|----8---8---12--10--12--|----10--12--13----------|
|------------------------|--------7---------------|------------------------|
|--------0-------0-------|--------0-------0-------|--------0-------0-------|
|0-----------------------|0-----------------------|0-----------------------|
|------------------------|------------------------|------------------------|
 
 |       |       |        |       |       |        |       |       |        
|10--------------5---7---|----7---5---7---5---7---|----7---5---7---5---7---|
|12--------------7---8---|----8---7---8---7---8---|----8---7---8---7---8---|
|------------------------|------------------------|------------------------|
|--------0-------0-------|--------0-------0-------|--------0-------0-------|
|------------------------|0-----------------------|0-----------------------|
|0-----------------------|------------------------|------------------------|
 
 |       |       |        |       |       |        |       |       |        
|----7---10--8-----------|7-----------------------|7-----------10------8---|
|----8---12--10----------|8---------------3/------|8-----------12------10--|
|------------------------|------------------------|------------------------|
|--------0-------0-------|--------0-------0-------|--------0-------0-------|
|------------------------|0-----------------------|0-----------------------|
|0-----------------------|------------------------|------------------------|
 
 |       |       |        |       |       |        |       |       |        
|7-----------10--9p--10--|----7-------5-------8---|7-----------------------|
|8-----------12--10p-12--|----8-------7-------10--|8---------------3/------|
|------------------------|------------------------|------------------------|
|--------0-------0-------|--------0-------0-------|--------0-------0-------|
|0-----------------------|------------------------|0-----------------------|
|------------------------|0-----------------------|------------------------|
 
 |       |       |        |       |       |        |       |       |        
|7-----------10------8---|7-----------10--9p--10--|----7-------5-------8---|
|8-----------12------10--|8-----------12--10p-12--|----8-------7-------10--|
|------------------------|------------------------|------------------------|
|--------0-------0-------|--------0-------0-------|--------0-------0-------|
|0-----------------------|0-----------------------|------------------------|
|------------------------|------------------------|0-----------------------|
 
 |       |       |        |       |       |        |       |       |        
|7---------------7-------|----10--9---10--9---10--|----7-------10--9---10--|
|8---------------8-------|----12--10--12--10--12--|----8---8---12--10--12--|
|------------------------|------------------------|--------7---------------|
|--------0-------0-------|--------0-------0-------|--------0-------0-------|
|0-----------------------|0-----------------------|0-----------------------|
|------------------------|------------------------|------------------------|
 
 |       |       |        |       |       |        |       |       |        
|----9---10--12----------|10--------------5---7---|----7---5---7---5---7---|
|----10--12--13----------|12--------------7---8---|----8---7---8---7---8---|
|------------------------|------------------------|------------------------|
|--------0-------0-------|--------0-------0-------|--------0-------0-------|
|0-----------------------|------------------------|0-----------------------|
|------------------------|0-----------------------|------------------------|
 
 |       |       |        |       |       |        |       |       |        
|----7---5---7---5---7---|----7---10--8-----------|7-----------------------|
|----8---7---8---7---8---|----8---12--10----------|8---------------3/------|
|------------------------|------------------------|------------------------|
|--------0-------0-------|--------0-------0-------|--------0-------0-------|
|0-----------------------|------------------------|0-----------------------|
|------------------------|0-----------------------|------------------------|
 
 |       |       |        |       |       |        |       |       |        
|7-----------10------8---|7-----------15------10--|8-----------5-------8---|
|8-----------12------10--|8-----------12------12--|10----------7-------10--|
|------------------------|------------------------|------------------------|
|--------0-------0-------|--------0-------0-------|--------0-------0-------|
|0-----------------------|0-----------------------|------------------------|
|------------------------|------------------------|0-----------------------|
 
 |       |       |        |       |       |        |       |       |        
|7-----------------------|7-----------10------8---|7-----------15------10--|
|8---------------3/------|8-----------12------10--|8-----------12------12--|
|------------------------|------------------------|------------------------|
|--------0-------0-------|--------0-------0-------|--------0-------0-------|
|0-----------------------|0-----------------------|0-----------------------|
|------------------------|------------------------|------------------------|
 
 |       |       |        |       |       |        |       |       |        
|8-----------5-------8---|7---------------7-------|----10--9p--10--9p--10--|
|10----------7-------10--|8---------------8-------|----12--10p-12--10--12--|
|------------------------|------------------------|------------------------|
|--------0-------0-------|--------0-------0-------|--------0-------0-------|
|------------------------|0-----------------------|0-----------------------|
|0-----------------------|------------------------|------------------------|
 
 |       |       |        |       |       |        |       |       |        
|----7-------10--9---10--|----9---10--15----------|10--------------5---7---|
|----------------10--12--|----10--12--12----------|12--------------7---8---|
|------0-----------------|------------------------|------------------------|
|--------0-------0-------|--------0-------0-------|--------0-------0-------|
|0-----------------------|0-----------------------|------------------------|
|------------------------|------------------------|0-----------------------|
 
 |       |       |        |       |       |        |       |       |        
|----7---5---7---5---7---|----7---5---7---5---7---|----5---7---8-----------|
|----8---7---8---7---8---|----8---7---8---7---8---|----7---8---10----------|
|------------------------|------------------------|------------------------|
|--------0-------0-------|--------0-------0-------|--------0-------0-------|
|0-----------------------|0-----------------------|------------------------|
|------------------------|------------------------|0-----------------------|
 
 |       |       |        |       |       |        |       |       |        
|7---7-------7---7b--7---|----10--9---10--9---10--|----7-------10--9---10--|
|8---8-------8---8-------|----12--10--12--10--12--|----8---8---12--10--12--|
|0-------0-------0-------|------------------------|--------7---------------|
|0-------0-------0-------|--------0-------0-------|--------0-------0-------|
|0-------0b------0-------|0-----------------------|0-----------------------|
|------------------------|------------------------|------------------------|
 
 |       |       |        |       |       |        |       |       |        
|----9---10--12----------|10--------------8-------|----7---5---7---5---7---|
|----10--12--14----------|12------12------10------|----8---7---8---7---8---|
|------------------------|--------0---------------|------------------------|
|--------0-------0-------|--------0-------0-------|--------0-------0-------|
|0-----------------------|------------------------|0-----------------------|
|------------------------|0-----------------------|------------------------|
 
 |       |       |        |       |       |        |       |       |        
|----7---5---7---5---7---|10----------8-----------|7-----------------------|
|----8---7---8---7---8---|12----------10----------|8-----------------------|
|------------------------|------------------------|0-----------------------|
|--------0-------0-------|--------0-------0-------|0-----------------------|
|0-----------------------|------------------------|0-----------------------|
|------------------------|0-----------------------|------------------------|
 
 |       |       |        |       |       |        |       |       |        
|0p--3-------3---3b--3---|0h--2-------2---2b--2---|0p--3-------3---3b--3---|
|0p--3-------3---3---3---|0h--1-------1---1---1---|0p--3-------3---3---3---|
|0p--3-------3---3---3b--|0h--2-------2---2---2b--|0p--3-------3---3---3b--|
|--------0-------0-------|--------0-------0-------|--------0-------0-------|
|--------0-------0-------|--------0-------0-------|--------0-------0-------|
|--------0b------0-------|--------0b------0-------|--------0b------0-------|
 
 |       |       |        |       |       |        
|0p--2-------2---2b--2---|3-----------------------|
|0p--1-------1---1---1---|3---------------3/------|
|0p--2-------2---2---2b--|3-----------------------|
|--------0-------0-------|0-----------------------|
|--------0-------0-------|0-----------------------|
|--------0b------0-------|--------0---------------|
 

Created with TablEdit http://www.tabledit.com/
Добавлено: 06.06.2012
Другие материалы по этой песне:

Страница создана 06.06.2012
http://primanota.ru/atahualpa-yupanqui/la-finadita-chords.htm
Привет, Гость.
Предлагаем пройти революционный курс по гитаре.
Подарок от PrimaNota.Ru, забирай!