PrimaNota.ru - самый крупный в мире бесплатный архив песенных текстов, аккордов, табулатур и нот


Atahualpa Yupanqui - Duermete Changuito - таба, видео

Регистрация Запомнить меня
Войти через:  Facebook Google Twitter Vk Yandex Mail.ru

Atahualpa Yupanqui - Duermete Changuito - таба, видео

Печатать
Просмотров: 146
Уроки эстрадного вокала в Санкт-Петербурге
Notice that "arm" means Harmonics. 


PART A
1|----------------||--4-----4--2---|--4-----4-----|--4------5---2---|
2|-----------0----||--0-----0--0---|--0-----0--0--|--0--------------|
3|----------------||--2------------|--------------|-----------------|
4|----------------||-----------1---|--2-----2-----|--2------4---1---|
5|----------------||---------------|--------------|-----------------|
6|--------------0-||-----0---------|------0-------|------0----------|

1|--4-------4------|--2------0-----|--------------|-----------------|
2|--0-------0------|--2---------4--|---5----4---2-|--0h2p0--0-------|
3|-----------------|--2------------|--------------|-------------2---|
4|--2-------2------|--2------------|--------------|-------------1---|
5|-----------------|--0---------2--|---4----2---0-|-------------2---|
6|------0----------|---------------|--------------|--4----------2---|

                (X)
1|-----------------|--4-----4---2-|--4-----4-----|--4-----5----2----|
2|----------0------|--0-----0---0-|--0-----0--0--|--0---------------|
3|--1--------------|--------------|--------------|------------------|
4|--2--------------|--2---------1-|--2-----2-----|--2-----4----1----|
5|--2--------------|--------------|--------------|------------------|
6|--0-----------0--|------0-------|-----0------0-|-----0----0----0--|

1|--7-------12-----|--9---7---5---|--7----9---5--|--4---4------2----|
2|-----------------|------9---7---|--9-----------|-------------0----|
3|-----------------|------8---6---|--8----9---6--|-------------2----|
4|--6-------11-----|--7-----------|--------------|-------------1----|
5|-----------------|--------------|-------2------|--2h3h4-----------|
6|-----------------|--------------|--------------|------------------|

1|--0-------------||
2|--0------0------||
3|--1-------------||
4|--2-------------||  
5|--2-------------||
6|--0---------0---||

PART B
            arm.......................
1|----------------|--------------|--------------|--9---------9---7--|
2|------------12--|----------12--|----------5/--|--10--------10--9--|
3|----------------|--------------|--------------|----------------8--|
4|----------------|--------------|--------------|-------------------|
5|----------------|--7-----------|--7-----------|-------------------|
6|----------------|--7-----------|--7-----------|-------------------|
7
1|--5-------5--7--|-4-----5--7---|--5--------2/-|-7---------7-------|
2|--7-------7--7--|-6------------|--2--------2/-|-7---------7---10--|
3|--6----------6--|-6------------|--2--------3/-|-8---------8-------|
4|----------------|--------------|--4--------4/-|-9---------9-------|
5|----------------|-4------------|--------------|-------------------|
6|----------------|--------------|--------------|-------------------|

                                           arm......................
1|----------------|-----4--------|--------------|-------------------|
2|--9------9---12-|--7----7---5--|--4-------12--|-------12----------|
3|----------------|--------------|--------------|-------------------|
4|----------------|--------------|--------------|-------------------|
5|--7-------------|--6----6---4--|--2-----------|-------------------|
6|----------------|--------------|--------------|-7-------------7---|

PART A
PART B
PART A
(X)
Добавлено: 06.04.2012
Другие материалы по этой песне:
  • Аккорды и текст

Страница создана 06.04.2012
http://primanota.ru/atahualpa-yupanqui/duermete-changuito-chords.htm
Привет, Гость.
Предлагаем пройти революционный курс по гитаре.
Подарок от PrimaNota.Ru, забирай!