PrimaNota.ru - самый крупный в мире бесплатный архив песенных текстов, аккордов, табулатур и нот


Atahualpa Yupanqui - Camino Del Indio - таба, видео

Регистрация Запомнить меня
Войти через:  Facebook Google Twitter Vk Yandex Mail.ru

Atahualpa Yupanqui - Camino Del Indio - таба, видео

Печатать
Просмотров: 109
CAMINO DEL INDIO - Atahualpa Yupanqui (1908-1992)

atahualpa@libertysurf.fr


E||------------|------------|--5----4/5--|--0---------|--3----3-3--|
B||--5----5-5--|--5----5-5--|--6----5/6--|--1---------|--1----1-1--|
G||--5----5-5--|--5----5-5--|------------|--0----0----|--0---------|
D||------------|------------|------------|-----2---2--|-----2---2--|
A||--0--0------|--0--0------|--0---------|--3---------|--3---------|
E||---------0--|---------0--|-----0---0--|------------|------------|

--5---------|------------|------------|--------------|--------------|
--5----5-5--|--3---------|--1---------|--------------|--------------|
--5----5-5--|--1----0----|--2----2----|--------2---2-|--------2---2-|
------------|---------2--|---------2--|------2---2---|------2---2---|
--0--3------|-----2------|--0--3------|--0-3---------|--0-3---------|
---------0--|--0---------|------------|--------------|--------------|

--------------|--------1-----|--------1-----|-------------|-------------|
--------------|------1-----1-|------1-----1-|-------------|-------------|
--------2---2-|----2-----2---|----2-----2---|-------0---0-|-------0---0-|
------2---2---|--3-----------|--3-----------|-----2---2---|-----2---2---|
--0-3---------|--------------|--------------|--3----------|--3----------|
--------------|--------------|--------------|-------------|-------------|

------------||--------------|-------------|-------------|--------------|
---------0--||--------3-----|-------0-----|-------0-----|--------------|
-------0-1--||*-----------1-|-----------2-|-----------2-|--------2---2-|
-----2------||*---------2---|-----2---2---|-----2---2---|------2---2---|
--0---------||------2-------|--0----------|--0----------|--0-3---------|
------------||---0----------|-------------|-------------|--------------|

-------------|--------------|--------------|-------------||--------------|
-------3-----|--------------|--------1---0-|-------1-----||--------------|
-----------1-|--------2---2-|--------------|---------2--*||--------2---2-|
---------2---|------2---2---|------2-------|-----2------*||------2---2---|
-----2-------|--0-3---------|--0-3-----2---|--0----------||--0-3---------|
--0----------|--------------|--------------|-------------||--------------|

--------------|--------1-----|--------1-----|--------1-----|--------0-----|
--------------|------1-----1-|------1-----1-|------1-----1-|------1---1---|
--------2---2-|----2-----2---|----2-----2---|----2-----2---|----2-------2-|
------2---2---|--3-----------|--3-----------|--3-----------|--------------|
--0-3---------|--------------|--------------|--------------|--0-----------|
--------------|--------------|--------------|--------------|--------------|

--------------|--------------||---------------|--------------|--------------|
--------------|--------------||---------------|--------------|--------1-----|
------0-2-0---|------0-2-0---||*------0-2-0---|------1-2-0---|------2---2---|
----2-------2-|----2-------2-||*----2-------2-|----2-------2-|----2-------2-|
--3-----------|--3-----------||---3-----------|--3-----------|--0-----------|
--------------|--------------||---------------|--------------|--------------|

--------------|--------------|--------------|--------------|---------------||
--------1-----|--------3-----|--------3-----|--------1-----|--------1------||
------2---2---|------1---0---|------1---0---|------2---2---|------2---2---*||
----2-------2-|----2-------2-|----2-------2-|----2-------2-|----2-------2-*||
--3-----------|--2-----------|--2-----------|--0-----------|--0------------||
--------------|--------------|--------------|--------------|---------------||

--------------|------------|--3----5-5--|--5---------|------------|------------|
--------1-----|-------1----|--5---------|-------5/5--|--3---------|--1---------|
--------2---2-|---------2--|--4--5---5--|--5----5/5--|-------1----|-------2----|
------2---2---|-----2------|------------|---------2--|---------2--|-----2---2--|
--0-3---------|--0---------|------------|-----3------|-----2------|--0---------|
--------------|------------|------------|------------|--0---------|------------|

-------------|-------------|-------------|-------------|-------------|
-------1---1-|-------1---1-|-------1---1-|-------1---1-|-------1---1-|
-------0---0-|-------0---0-|-------0---0-|-------0---0-|-------2---2-|
-----2---2---|-----2---2---|-----2---2---|-----2---2---|-----3---3---|
--3----------|--3----------|--3----------|--3----------|-------------|
-------------|-------------|-------------|-------------|--1----------|

-------------|-------------|-------------|-------------|-------------|
-------1---1-|-------1---1-|-------1---1-|-------1---1-|-------1---1-|
-------2---2-|-------0---0-|-------0---0-|-------2---2-|-------2---2-|
-----3---3---|-----2---2---|-----2---2---|-----2---2---|-----2---2---|
-------------|--3----------|--3----------|--0----------|--0----------|
--1----------|-------------|-------------|-------------|-------------|

-------------|-------------|-------------|-------------|-------------|
-------1---1-|-------1---1-|-------1---1-|-------1---1-|-------1---1-|
-------2---2-|-------2---2-|-------2---2-|-------2---2-|-------2---2-|
-----2---2---|-----2---2---|-----2---2---|-----2---2---|-----2---2---|
--3----------|--3----------|--3----------|--3----------|--3----------|
-------------|-------------|-------------|-------------|-------------|

-------------|-------------|-------------|-------------|-------------|
-------1---1-|-------1---1-|-------1---1-|-------1---1-|-------1---1-|
-------0---0-|-------0---0-|-------0---0-|-------0---0-|-------0---0-|
-----2---2---|-----2---2---|-----2---2---|-----2---2---|-----2---2---|
--3----------|--3----------|--3----------|--3----------|--3----------|
-------------|-------------|-------------|-------------|-------------|

-------------|-------------|-------------|-------------|-------------|
-------1---1-|-------1---1-|-------1---1-|-------1---1-|-------1---1-|
-------2---2-|-------2---2-|-------0---0-|-------0---0-|-------2---2-|
-----3---3---|-----3---3---|-----2---2---|-----2---2---|-----2---2---|
-------------|-------------|--3----------|--3----------|--3----------|
--1----------|--1----------|-------------|-------------|-------------|

-------------|-------------|-------------|--------------|--------------|
-------1---1-|-------1---1-|-------1---1-|--------1-----|--------1-----|
-------2---2-|-------2---2-|-------2---2-|--------2---2-|--------2---2-|
-----2---2---|-----2---2---|-----2---2---|------2-------|------2-------|
--3----------|--3----------|--3----------|--0-3-----3---|--0-3-----3---|
-------------|-------------|-------------|--------------|--------------|

--------------|---------|-------------|------------|--5----4-5--|--0---------|
--------1-----|--1------|--5----5---5-|--5----5----|--6----5-6--|--1---------|
--------2---2-|--2------|--5----5---5-|--5----5----|------------|--0----0----|
------2-------|--2------|-------------|------------|------------|-----2---2--|
--0-3-----3---|--0------|--0--0-------|--0--0------|--0---------|--3---------|
--------------|---------|---------0---|---------0--|-----0---0--|------------|

--3----3-3--|--5---------|------------|------------|---------||
--1----1-1--|--5----5-5--|--3---------|--1---------|--1------||
--0---------|--5----5-5--|--1----0----|--2----2----|--2------||
-----2---2--|------------|---------2--|---------2--|--2------||
--3---------|--0------7--|-----2------|--0--3------|--0------||
------------|-----8------|--0---------|------------|---------||

Добавлено: 06.07.2012
Другие материалы по этой песне:

Страница создана 05.03.2012
http://primanota.ru/atahualpa-yupanqui/camino-del-indio-chords.htm
Привет, Гость.
Предлагаем пройти революционный курс по гитаре.
Подарок от PrimaNota.Ru, забирай!