PrimaNota.ru - самый крупный в мире бесплатный архив песенных текстов, аккордов, табулатур и нот


At Vance - Solfeggietto - таба, видео

Регистрация Запомнить меня
Войти через:  Facebook Google Twitter Vk Yandex Mail.ru

At Vance - Solfeggietto - таба, видео

Печатать
Просмотров: 124
Авторы музыки: Carl Philipp Emanuel Bach

As recorded by At Vance
(From the 2002 Album ONLY HUMAN)

Transcribed by Helvete
        

Music by Carl Philip Emmanuel Bach
Arranged by At Vance

Gtr I (E A D G B E) - 'Untitled'

  Q=140
 2/4
  Gtr I
  S S S S S S S S   S S S S S S S S
|-----------------|---------0-------|
|-----------1-0---|-------0---3-1-0-|
|---------2-----2-|-1---1-----------|
|-------2---------|---2-------------|
|-3-0-3-----------|-----------------|
|-----------------|-----------------|


   S  S  S  S  S  S  S  S    S  S  S  S  S  S  S  S
|-------------------------|--------------------------|
|----------------13-12----|-12-----------------------|
|-------------14-------14-|----14-13-11--------------|
|----------14-------------|-------------14-12--------|
|-15-12-15----------------|-------------------15-14--|
|-------------------------|--------------------------|


   S  S  S  S  S  S  S  S    S  S  S  S  S  S  S  S
|-------------------------|-------------12----------|
|----------------13-12----|----------12----15-13-12-|
|-------------14-------14-|-13----13----------------|
|----------14-------------|----14-------------------|
|-15-12-15----------------|-------------------------|
|-------------------------|-------------------------|


   S  S  S  S  S  S  S  S    S  S  S  S  S  S  S  S
|----------12s17-20-19-17-|-19-17-16----------------|
|-13----13----------------|----------19-17-15-------|
|----14-------------------|-------------------17-16-|
|-------------------------|-------------------------|
|-------------------------|-------------------------|
|-------------------------|-------------------------|


   S  S  S  S  S  S  S  S    S  S  S  S  S  S  S  S
|----------------17-------|-------------------------|
|-13----------------17----|-18----------------10-13-|
|----14----------------17-|----------------10-------|
|-------14----------------|-------------12----------|
|----------15-12----------|----------12-------------|
|-------------------------|----10-13----------------|


   S  S  S  S  S  S  S  S    S S S  S  S S S S
|----------------15-------|------------------7-|
|-12----------------15----|-17-------------8---|
|----12----------------16-|--------------9-----|
|-------12----------------|-----------10-------|
|----------14-------------|------7-10----------|
|-------------15----------|----8---------------|


   S  S  S  S  S  S  S  S    S  S  S  S  S  S  S  S
|-------------------------|-------------------------|
|-------------------------|-------------------------|
|-14----------14----------|-17-14-------17-14-------|
|----16-15-16----16-15-16-|-------14-16-------14-16-|
|-------------------------|-------------------------|
|-------------------------|-------------------------|


   S  S  S  S  S  S  S  S    S  S S  S  S  S  S  S
|-------------14----------|------------------------|
|-------------------------|-16----0----------------|
|-16-14----------14-------|----14---11-14-11-------|
|-------13-16-------13-16-|------------------13----|
|-------------------------|---------------------14-|
|-------------------------|------------------------|


  S S S S S S S S   S S S S S S  S S    S S  S S S S S S   S S S S S S S S
|-----------------|------------------|-------------------|-----------------|
|-----------------|------------------|-------------8-7---|-7-5-4-----------|
|-----------0-----|------------------|-----------9-----9-|-------6-4-------|
|---------2---4-2-|-1---1-4-9-7------|---------9---------|-----------7-5-4-|
|-------2---------|---2---------10-9-|-10-7-10-----------|-----------------|
|-3-0-3-----------|------------------|-------------------|-----------------|


   S S  S S S S S S   S S S S S  S S S
|-------------------|---------7--------|
|-------------8-7---|-------7---10-8-7-|
|-----------9-----9-|-8---8------------|
|---------9---------|---9--------------|
|-10-7-10-----------|------------------|
|-------------------|------------------|


  S S S S  S  S  S  S    S  S  S  S  S  S  S  S
|-------7s12-15-14-12-|-14-12-11----------------|
|-8---8---------------|----------14-12-10-------|
|---9-----------------|-------------------12-11-|
|---------------------|-------------------------|
|---------------------|-------------------------|
|---------------------|-------------------------|


  S S S S  S S S S   S  S S S S S S  S    S S  S S  S S  S S   S S S S S S S S
|-------7-12-7-----|---12-7-------7-12-|---------------------|-----------------|
|-----8--------8---|--------9---9------|------10--------10---|-----9-------9---|
|---9------------9-|----------9--------|----9----9----9----9-|---9---9---9---9-|
|------------------|-0-----------------|-10--------10--------|-9-------9-------|
|-7----------------|-------------------|---------------------|-----------------|
|------------------|-------------------|---------------------|-----------------|


   S  S  S  S  S  S  S  S   S  S  S  S  S  S  S  S
|----------12-17-12-------|---17----------------17-|
|-------13----------13----|------17-14----14-17----|
|----14----------------14-|-0----------14----------|
|-------------------------|------------------------|
|-12----------------------|------------------------|
|-------------------------|------------------------|


   S  S  S  S  S  S  S  S    S  S  S  S  S  S  S  S
|-------------------------|-------------------------||
|-------15----------15----|-------14----------14----||
|----14----14----14----14-|----14----14----14----14-||
|-15----------15----------|-14----------14----------||
|-------------------------|-------------------------||
|-------------------------|-------------------------||


  S S S S S S S S   S S S S S S S S
|-----------------|---------5-------|
|-----------6-5---|-------5---8-6-5-|
|---------7-----7-|-6---6-----------|
|-------7---------|---7-------------|
|-8-5-8-----------|-----------------|
|-----------------|-----------------|


  S S S S  S  S  S  S    S  S S  S  S S  S S
|-------5s10-13-12-10-|-12-10-9--------------|
|-6---6---------------|---------12-10-8------|
|---7-----------------|-----------------10-9-|
|---------------------|----------------------|
|---------------------|----------------------|
|---------------------|----------------------|


  S S S S S S S S   S S S S S S S S
|-----------------|---------5-------|
|-----------6-5---|-------5---8-6-5-|
|---------7-----7-|-6---6-----------|
|-------7---------|---7-------------|
|-8-5-8-----------|-----------------|
|-----------------|-----------------|


  S S S S  S  S  S  S    S  S S  S  S S  S S
|-------5s10-13-12-10-|-12-10-9--------------|
|-6---6---------------|---------12-10-8------|
|---7-----------------|-----------------10-9-|
|---------------------|----------------------|
|---------------------|----------------------|
|---------------------|----------------------|


   S  S  S  S  S  S  S  S    S  S  S  S  S  S  S  S
|----10-------------------|-------------------------|
|-10----10-------10-------|-------------------------|
|----------10-------10----|----10-------------------|
|-------------12-------12-|-------12-------12-------|
|-------------------------|-12-------12-------12----|
|-------------------------|-------------13-------13-|


  ~~
  H        S  S S  S  S  S S  S
|-------|-13-10-9-10-12-10-9-10-|
|-------|-----------------------|
|-------|-----------------------|
|-------|-----------------------|
|-------|-----------------------|
|-6/----|-----------------------|


  ~                         ~~
  H       S S S S S S S S   H       S S S  S S S  S S    S S  S S S  S S S
|------|------------------|-------|-7-----------------|--------------------|
|------|------------------|-------|-------------------|------10---8--------|
|------|-10-7-6-7-9-7-6-7-|-------|---7-9-10-9-7------|----9----9---10-9-7-|
|------|------------------|-------|--------------10-9-|-10-----------------|
|------|------------------|-------|-------------------|--------------------|
|-5----|------------------|-4/----|-------------------|--------------------|


             H=H Faster Q=160
      |-3--|
   Q  S  S S S S     S S  S S  S S  S S   S S  S S S S  S S   S S S S S S S S
|----------------||----8-12-8----8-12-8-|---7-10-7---7-10-7-|---5-9-5---5-9-5-|
|----------------||-10--------10--------|-9--------9--------|-8-------8-------|
|----------------||---------------------|-------------------|-----------------|
|-10--9-10-9-7-9-||---------------------|-------------------|-----------------|
|----------------||---------------------|-------------------|-----------------|
|----------------||---------------------|-------------------|-----------------|


   S  S  S  S  S  S  S  S    S S S S  S S S S
|----14-17-14----14-17-14-|------9--------9---|
|-13----------13----------|----8---8----8---8-|
|-------------------------|-10-------10-------|
|-------------------------|-------------------|
|-------------------------|-------------------|
|-------------------------|-------------------|


   S  S  S  S  S  S  S  S   S S  S S S S  S S
|----12-15-12----12-15-12-|-------------------|
|-------------------------|---6-10-6---6-10-6-|
|-15----------15----------|-8--------8--------|
|-------------------------|-------------------|
|-------------------------|-------------------|
|-------------------------|-------------------|


  S S  S S S S  S S    S  S  S  S  S  S  S  S
|-------------------|----------12-17-12-------|
|---7-10-7---7-10-7-|-------13----------13----|
|-8--------8--------|----14----------------14-|
|-------------------|-------------------------|
|-------------------|-12----------------------|
|-------------------|-------------------------|


   S  S  S  S  S  S  S  S   S S S S S S S S
|-12----------------------|-----------------|
|----13-------15-12-------|-----------1-0---|
|-------14----------13----|---------2-----2-|
|----------14----------14-|-------2---------|
|-------------------------|-3-0-3-----------|
|-------------------------|-----------------|


  S S S S S S S S    S  S  S  S  S  S  S  S
|---------0-------|-------------------------|
|-------0---3-1-0-|----------------13-12----|
|-1---1-----------|-------------14-------14-|
|---2-------------|----------14-------------|
|-----------------|-15-12-15----------------|
|-----------------|-------------------------|


   S  S  S  S  S  S  S  S    S  S  S  S  S  S  S  S
|-------------------------|---------------------------|
|-12----------------------|----------------13-12------|
|----14-13-11-------------|-------------14-------14---|
|-------------14-12-------|----------14---------------|
|-------------------15-14-|-15-12-15------------------|
|-------------------------|---------------------------|


                                              H.=H
   S  S  S  S  S  S  S  S    S  S  S  S  S  S  S  S
|-------------12----------|----------12S17-20-19-16-|
|----------12----15-13-12-|-13----13----------------|
|-13----13----------------|----14-------------------|
|----14-------------------|-------------------------|
|-------------------------|-------------------------|
|-------------------------|-------------------------|


                             ~~
   S  S  S  S  S  S  S  S    H
|-17-12-------------------|-------*|
|-------13-12-------------|-------*|
|-------------14----------|-------*|
|----------------14-------|-------*|
|-------------------15-14-|-12----*|
|-------------------------|-------*|



Duration Legend
---------------
W - whole; H - half; Q - quarter; E - 8th; S - 16th; T - 32nd; X - 64th; a - acciaccatura
+ - note tied to previous; . - note dotted; .. - note double dotted
Uncapitalized letters represent notes that are staccato (1/2 duration)
Irregular groupings are notated above the duration line
Duration letters will always appear directly above the note/fret number it represents the
duration for.  Duration letters with no fret number below them represent rests.  Multi-
bar rests are notated in the form Wxn, where n is the number of bars to rest for.  Low
melody durations appear below the staff

Tablature Legend
----------------
 h   - hammer-on
 p   - pull-off
 b   - bend
 pb  - pre-bend
 r   - bend release (if no number after the r, then release immediately)
 /\  - slide into or out of (from/to "nowhere")
 s   - legato slide
 S   - shift slide
 - natural harmonic
[n]  - artificial harmonic
n(n) - tapped harmonic
 ~   - vibrato
 tr  - trill
 T   - tap
 TP  - trem. picking
 PM  - palm muting
\n/  - tremolo bar dip; n = amount to dip
 \n  - tremolo bar down
 n/  - tremolo bar up
/n\  - tremolo bar inverted dip
 =   - hold bend; also acts as connecting device for hammers/pulls
 <> - volume swell (louder/softer)
 x   - on rhythm slash represents muted slash
 o   - on rhythm slash represents single note slash

Misc Legend
-----------
 |  - bar
||  - double bar
||o - repeat start
o|| - repeat end
*|  - double bar (ending)
 :  - bar (freetime)
 $  - Segno
 &  - Coda
Tempo markers -  = BPM(8/16=s8/s16), where s8 = swing 8ths, s16 = swing 16ths

Добавлено: 04.04.2012
Другие материалы по этой песне:

Страница создана 04.04.2012
http://primanota.ru/at-vance/solfeggietto-chords.htm
Привет, Гость.
Предлагаем пройти революционный курс по гитаре.
Подарок от PrimaNota.Ru, забирай!