PrimaNota.ru - самый крупный в мире бесплатный архив песенных текстов, аккордов, табулатур и нот


At Vance - Soldier Of Time - текст песни, таба, видео

Регистрация Запомнить меня
Войти через:  Facebook Google Twitter Vk Yandex Mail.ru

At Vance - Soldier Of Time - текст песни, таба, видео

Печатать
Просмотров: 114
---------------------------
At vance - Soldier of Time
---------------------------
Tabbed by: Symon Godfrey
Email: sneak_@hotmail.co.uk
Standard Tuning


Section 1
|------------------------------------------------|
|------------------------------------------------|
|----16~--14----------14-------------------------|
|-14---------17-16-14----17-16-17-16-14-16-------|
|------------------------------------------14-14-|
|------------------------------------------------|

|------------------------------------------------|
|------------------------------------------------|
|----16~--14----------14-------------------------|
|-14---------17-16-14----17-16-17-16-14-13----14-|
|------------------------------------------14----|
|------------------------------------------------|

Section 2
|--------------------------------------------------------------|
|--------------------------------------------------------------|
|--------------------------------------------------------------|
|---2---------2---------------------2-------2------------------|
|-2-2-----2---2-----5-----4-9-9---2-2-----2-2-----5-----4-9-2~-|
|-2-0-5-4-2---0-5-4-5-4-2-4-9-9---2-0-5-4-2-0-5-4-5-4-2-4-9-2~-|
|-0---3-2-0-----3-2-3-2-0-2-7-7---0---3-2-0---3-2-3-2-0-2-7-0~-|

Section 3
|-------------------------------------------------------|
|-------------------------------------------------------|
|-16-16~--14-- -----------------------------------------|
|------------17-19-17-16----19-17-16-17-16----16--------|
|------------------------19----------------19----14-14--|
|-------------------------------------------------------|

|-------------------------------------------------------|
|-------------------------------------------------------|
|----16-16-14----14----------14-------------------------|
|-14----------17----17-16-14----17-16-17-16-14-13----14-|
|-------------------------------------------------14----|
|-------------------------------------------------------|

Section 4
|----------------------------------------------------------------| 
|----------------------------------------------------------------|  
|----16-16-16-14----14----------------14-------------------------|  
|-14-------------17----17-16-14-16-17----17-16-17-16-14-16-------|  '
|----------------------------------------------------------14-14-|  
|----------------------------------------------------------------|
                                                                   
|----------------------------------------------------------------|
|----------------------------------------------------------------|
|----16-16 16-14----14----------------14-------------------------|
|-14-------------17----17-16-14-16-17----17-16-17-16-14-13----14-|
|----------------------------------------------------------14----|
|----------------------------------------------------------------|
                                                                   x2
|----------------------------------------------------------------|
|----------------------------------------------------------------|
|-------------------------------------14-16-14-------------------|
|-13----13-14-13-14-16-14-16-17-16-17----------17-16-14-16-------|
|----14----------------------------------------------------14-14-|
|----------------------------------------------------------------|
                                                                  
|----------------------------------------------------------------|
|-------------------------------------------------------------17-|
|-------------------------------------14-16-14-------------16----|
|-13----13-14-13-14-16-14-16-17-16-17----------17-16-14-16-------|
|----14----------------------------------------------------------|
|----------------------------------------------------------------|

Section 5
|---------------------------------------------------------------------------|
|---------------------------------------------------------------------------|
|-9|----9|--5-4-2-4--5-4-2-4--3-4-3---4--5---4----------5-----------------4-|
|-9|--9-9|--5-4-2-4--5-4-2-4--3-4-3-4-4--5-5-4----------5-5-----6-5-------4-|
|-7|--9-7|--3-2-0-2--3-2-0-2--5-2-1-4-2--3-5-2--------2-3-5-3-5------2x16-2-|
|-----7-----------------------------2------3----0-2-3-----3-----------------|

just repeat solos after section5 and then do the riffs again.
Добавлено: 10.06.2012
Другие материалы по этой песне:

Страница создана 19.04.2012
http://primanota.ru/at-vance/soldier-of-time-chords.htm
Привет, Гость.
Предлагаем пройти революционный курс по гитаре.
Подарок от PrimaNota.Ru, забирай!