PrimaNota.ru - самый крупный в мире бесплатный архив песенных текстов, аккордов, табулатур и нот


At Vance - Princess Of Ice - текст песни, бас-таба, видео

Регистрация Запомнить меня
Войти через:  Facebook Google Twitter Vk Yandex Mail.ru

At Vance - Princess Of Ice - текст песни, бас-таба, видео

Печатать
Просмотров: 166
                                Princess Of Ice                                 


Pista 1
                                                                     
G||--------------------|-------------------|------------------------|
D||--------------------|-------------------|------------------------|
A||--------------------|-------------------|--3----3--2--0----0-----|
E||--0--------------0--|--0----------------|---------------------3--|


                                                              
-------------------|--------------------|--------------------|
-------------------|--------------------|--------------------|
-------------------|--------------------|--------------------|
--1----------------|--1--------0--------|--5--------------5--|


                                                                 
-------------------|------------------------|-------------------|
-------------------|------------------------|-------------------|
-------------------|--8----8--7--5----5-----|-------------------|
--5----------------|---------------------8--|--6----------------|


                                                                     
--------------------|--------------------|--------------------------|
--------------------|--------------------|--------------------------|
--------------------|-----------4--------|--------------------------|
--6--------5--------|--6-----------------|--0--0--0--0--0--0--0--0--|


                                                      
--------------------------|--------------------------|
--------------------------|--------------------------|
-----------------------0--|--3--3--3--3--------------|
--0--0--0--0--0--1--3-----|--------------5--5--5--5--|


                                                      
--------------------------|--------------------------|
--------------------------|--------------------------|
--------------------------|--------------------------|
--1--1--1--1--1--1--1--1--|--1--1--1--1--0--0--0--0--|


                                                      
--------------------------|--------------------------|
--------------------------|--------------------------|
--------------------------|--------------------------|
--5--5--5--5--5--5--5--5--|--5--5--5--5--5--7--8--5--|


                                                      
--------------------------|--------------------------|
--------------------------|--------------------------|
--8--8--8--8--5--5--5--5--|--------------------------|
--------------------------|--6--6--6--6--6--6--6--6--|


                                                      
--------------------------|--------------------------|
--------------------------|--------------------------|
--------------------------|-----------------------4--|
--3--3--3--3--5--5--5--5--|--6--6--6--6--5--5--5-----|


                                                      
--------------------------|--------------------------|
--------------------------|--------------------------|
--5--5--5--5--5--5--5--5--|--5--5--5--5--5--5--5--5--|
--------------------------|--------------------------|


                                                      
--------------------------|--------------------------|
--------------------------|--------------------------|
--4--4--4--4--4--4--4--4--|--5--5--5--5--3--3--3--3--|
--------------------------|--------------------------|


                                                      
--------------------------|--------------------------|
--------------------------|--------------------------|
--------------------------|--------------------------|
--6--6--6--6--6--6--6--6--|--5--5--5--5--5--5--5--5--|


                                                      
--------------------------|--------------------------|
--------------------------|--------------------------|
--------------------------|--------------------------|
--3--3--3--3--3--3--3--3--|--5--5--5--5--5--5--5--5--|


                                                      
--------------------------|--------------------------|
--------------------------|--------------------------|
--5--5--5--5--5--5--5--5--|--5--5--5--5--5--5--5--5--|
--------------------------|--------------------------|


                                                      
--------------------------|--------------------------|
--------------------------|--------------------------|
--4--4--4--4--4--4--4--4--|--5--5--5--5--3--3--3--3--|
--------------------------|--------------------------|


                                                      
--------------------------|--------------------------|
--------------------------|--------------------------|
--------------------------|--------------------------|
--6--6--6--6--6--6--6--6--|--5--5--5--5--5--5--5--5--|


                                                      
--------------------------|--------------------------|
--------------------------|--------------------------|
--------------------------|--------------------------|
--3--3--3--3--3--3--3--3--|--5--5--5--5--5--5--5--5--|


                                                      
--------------------------|--------------------------|
--------------------------|--------------------------|
--------------------------|--------------------------|
--5--5--5--5--5--5--5--5--|--5--5--5--5--5--5--5--5--|


                                                      
--------------------------|--------------------------|
--------------------------|--------------------------|
--------------------------|--5--5--5--5--5--5--5--5--|
--6--6--6--6--5--5--5--5--|--------------------------|


                                                      
--------------------------|--------------------------|
--------------------------|--------------------------|
--3--3--3--3--3--3--3--3--|--------------------------|
--------------------------|--3--3--3--3--3--3--3--3--|


                                                      
--------------------------|--------------------------|
--------------------------|--------------------------|
--------------------------|--------------------------|
--3--3--3--3--3--3--3--3--|--5--5--5--5--5--5--5--5--|


                                                      
--------------------------|--------------------------|
--------------------------|--------------------------|
--------------------------|--------------------------|
--5--5--5--5--5--5--5--5--|--5--5--5--5--5--5--5--5--|


                                                      
--------------------------|--------------------------|
--------------------------|--------------------------|
--------------------------|--5--5--5--5--5--5--5--5--|
--5--5--5--5--5--5--5--5--|--------------------------|


                                                      
--------------------------|--------------------------|
--------------------------|--------------------------|
--5--5--5--5--5--7--8--5--|--------------------------|
--------------------------|--6--6--6--6--6--6--6--6--|


                                                      
--------------------------|--------------------------|
--------------------------|--------------------------|
--------------------------|--5--5--5--5--5--5--5--5--|
--8--8--8--5--5--5--5--5--|--------------------------|


                                                                               
--------------------------|--------------------------|------------------------|
--------------------------|--------------------------|------------------------|
--5--5--5--5--5--7--8--5--|--------------------------|------------------------|
--------------------------|--6--6--6--6--6--6--6--6--|--5--5--5----8--8--8----|


                                                                          
------------------------|---------------------|--------------------------|
------------------------|---------------------|--------------------------|
--5--------8----7----5/-|------17/-------0----|--------------------------|
-----6--5---------------|---------------------|--0--0--0--0--0--0--0--0--|


                                                      
--------------------------|--------------------------|
--------------------------|--------------------------|
-----------------------0--|--3--3--3--3--------------|
--0--0--0--0--0--1--3-----|--------------5--5--5--5--|


                                                      
--------------------------|--------------------------|
--------------------------|--------------------------|
--------------------------|--------------------------|
--1--1--1--1--1--1--1--1--|--1--1--1--1--0--0--0--0--|


                                                      
--------------------------|--------------------------|
--------------------------|--------------------------|
--------------------------|--------------------------|
--5--5--5--5--5--5--5--5--|--5--5--5--5--5--7--8--5--|


                                                      
--------------------------|--------------------------|
--------------------------|--------------------------|
--8--8--8--8--5--5--5--5--|--------------------------|
--------------------------|--6--6--6--6--6--6--6--6--|


                                                      
--------------------------|--------------------------|
--------------------------|--------------------------|
--------------------------|-----------------------4--|
--3--3--3--3--5--5--5--5--|--6--6--6--6--5--5--5-----|


                                                      
--------------------------|--------------------------|
--------------------------|--------------------------|
--5--5--5--5--5--5--5--5--|--5--5--5--5--5--5--5--5--|
--------------------------|--------------------------|


                                                      
--------------------------|--------------------------|
--------------------------|--------------------------|
--4--4--4--4--4--4--4--4--|--5--5--5--5--3--3--3--3--|
--------------------------|--------------------------|


                                                      
--------------------------|--------------------------|
--------------------------|--------------------------|
--------------------------|--------------------------|
--6--6--6--6--6--6--6--6--|--5--5--5--5--5--5--5--5--|


                                                      
--------------------------|--------------------------|
--------------------------|--------------------------|
--------------------------|--------------------------|
--3--3--3--3--3--3--3--3--|--5--5--5--5--5--5--5--5--|


                                                      
--------------------------|--------------------------|
--------------------------|--------------------------|
--5--5--5--5--5--5--5--5--|--5--5--5--5--5--5--5--5--|
--------------------------|--------------------------|


                                                      
--------------------------|--------------------------|
--------------------------|--------------------------|
--4--4--4--4--4--4--4--4--|--5--5--5--5--3--3--3--3--|
--------------------------|--------------------------|


                                                      
--------------------------|--------------------------|
--------------------------|--------------------------|
--------------------------|--------------------------|
--6--6--6--6--6--6--6--6--|--5--5--5--5--5--5--5--5--|


                                                      
--------------------------|--------------------------|
--------------------------|--------------------------|
--------------------------|--------------------------|
--3--3--3--3--3--3--3--3--|--5--5--5--5--5--5--5--5--|


                                                      
--------------------------|--------------------------|
--------------------------|--------------------------|
--------------------------|--------------------------|
--5--5--5--5--5--5--5--5--|--5--5--5--5--5--5--5--5--|


                                                      
--------------------------|--------------------------|
--------------------------|--------------------------|
--------------------------|--5--5--5--5--5--5--5--5--|
--6--6--6--6--5--5--5--5--|--------------------------|


                                                      
--------------------------|--------------------------|
--------------------------|--------------------------|
--3--3--3--3--3--3--3--3--|--------------------------|
--------------------------|--3--3--3--3--3--3--3--3--|


                                                      
--------------------------|--------------------------|
--------------------------|--------------------------|
--------------------------|--------------------------|
--3--3--3--3--3--3--3--3--|--5--5--5--5--5--5--5--5--|


                                                      
--------------------------|--------------------------|
--------------------------|--------------------------|
--------------------------|--------------------------|
--5--5--5--5--5--5--5--5--|--5--5--5--5--5--5--5--5--|


                                                      
--------------------------|--------------------------|
--------------------------|--------------------------|
--------------------------|--5--5--5--5--5--5--5--5--|
--5--5--5--5--5--5--5--5--|--------------------------|


                                                      
--------------------------|--------------------------|
--------------------------|--------------------------|
--5--5--5--5--5--7--8--5--|--------------------------|
--------------------------|--6--6--6--6--6--6--6--6--|


                                                      
--------------------------|--------------------------|
--------------------------|--------------------------|
--------------------------|--5--5--5--5--5--5--5--5--|
--8--8--8--5--5--5--5--5--|--------------------------|


                                                                               
--------------------------|--------------------------|------------------------|
--------------------------|--------------------------|------------------------|
--5--5--5--5--5--7--8--5--|--------------------------|------------------------|
--------------------------|--6--6--6--6--6--6--6--6--|--5--5--5----8--8--8----|


                                                      
--------------------------|--------------------------|
--------------------------|--------------------------|
--------------------------|-----------------------4--|
--3--3--3--3--5--5--5--5--|--6--6--6--6--5--5--5-----|


                                                      
--------------------------|--------------------------|
--------------------------|--------------------------|
--5--5--5--5--5--5--5--5--|--5--5--5--5--5--5--5--5--|
--------------------------|--------------------------|


                                                      
--------------------------|--------------------------|
--------------------------|--------------------------|
--4--4--4--4--4--4--4--4--|--5--5--5--5--3--3--3--3--|
--------------------------|--------------------------|


                                                      
--------------------------|--------------------------|
--------------------------|--------------------------|
--------------------------|--------------------------|
--6--6--6--6--6--6--6--6--|--5--5--5--5--5--5--5--5--|


                                                      
--------------------------|--------------------------|
--------------------------|--------------------------|
--------------------------|--------------------------|
--3--3--3--3--3--3--3--3--|--5--5--5--5--5--5--5--5--|


                                                      
--------------------------|--------------------------|
--------------------------|--------------------------|
--5--5--5--5--5--5--5--5--|--5--5--5--5--5--5--5--5--|
--------------------------|--------------------------|


                                                      
--------------------------|--------------------------|
--------------------------|--------------------------|
--4--4--4--4--4--4--4--4--|--5--5--5--5--3--3--3--3--|
--------------------------|--------------------------|


                                                      
--------------------------|--------------------------|
--------------------------|--------------------------|
--------------------------|--------------------------|
--6--6--6--6--6--6--6--6--|--5--5--5--5--5--5--5--5--|


                                                      
--------------------------|--------------------------|
--------------------------|--------------------------|
--------------------------|--------------------------|
--3--3--3--3--3--3--3--3--|--5--5--5--5--5--5--5--5--|


                                                      
--------------------------|--------------------------|
--------------------------|--------------------------|
--------------------------|--------------------------|
--5--5--5--5--5--5--5--5--|--5--5--5--5--5--5--5--5--|


                                                      
--------------------------|--------------------------|
--------------------------|--------------------------|
--------------------------|--5--5--5--5--5--5--5--5--|
--6--6--6--6--5--5--5--5--|--------------------------|


                                                      
--------------------------|--------------------------|
--------------------------|--------------------------|
--3--3--3--3--3--3--3--3--|--------------------------|
--------------------------|--3--3--3--3--3--3--3--3--|


                                                      
--------------------------|--------------------------|
--------------------------|--------------------------|
--------------------------|--------------------------|
--3--3--3--3--3--3--3--3--|--5--5--5--5--5--5--5--5--|


                                                      
--------------------------|--------------------------|
--------------------------|--------------------------|
--------------------------|--------------------------|
--5--5--5--5--5--5--5--5--|--5--5--5--5--5--5--5--5--|


                                                      
--------------------------|--------------------------|
--------------------------|--------------------------|
--------------------------|--5--5--5--5--5--5--5--5--|
--5--5--5--5--5--5--5--5--|--------------------------|


                                                      
--------------------------|--------------------------|
--------------------------|--------------------------|
--5--5--5--5--5--7--8--5--|--------------------------|
--------------------------|--6--6--6--6--6--6--6--6--|


                                                      
--------------------------|--------------------------|
--------------------------|--------------------------|
--------------------------|--5--5--5--5--5--5--5--5--|
--8--8--8--5--5--5--5--5--|--------------------------|


                                                                               
--------------------------|--------------------------|------------------------|
--------------------------|--------------------------|------------------------|
--5--5--5--5--5--7--8--5--|--------------------------|------------------------|
--------------------------|--6--6--6--6--6--6--6--6--|--5--5--5----8--8--8----|


                                                      
--------------------------|--------------------------|
--------------------------|--------------------------|
--------------------------|-----------------------4--|
--3--3--3--3--3--5--5--5--|--6--6--6--6--5--5--5-----|


                                                      
--------------------------|--------------------------|
--------------------------|--------------------------|
--7--7--7--7--7--7--7--7--|--7--7--7--7--7--7--7--7--|
--------------------------|--------------------------|


                                                       
---------------------------|--------------------------|
---------------------------|--------------------------|
--7--7--7--7--7--9--10--7--|--------------------------|
---------------------------|--8--8--8--8--8--8--8--8--|


                                                         
-----------------------------|--------------------------|
-----------------------------|--------------------------|
-----------------------------|--7--7--7--7--7--7--7--7--|
--10--10--10--7--7--7--7--7--|--------------------------|


                                                       
---------------------------|--------------------------|
---------------------------|--------------------------|
--7--7--7--7--7--9--10--7--|--------------------------|
---------------------------|--8--8--8--8--8--8--8--8--|


                                                       
---------------------------|--------------------------|
---------------------------|--------------------------|
---------------------------|--------------------------|
--7--7--7----10--10--10----|--5--5--5--5--7--7--7--7--|


                                                      
--------------------------|--------------------------|
--------------------------|--------------------------|
-----------------------6--|--7--7--7--7--7--7--7--7--|
--8--8--8--8--7--7--7-----|--------------------------|


                                                       
---------------------------|--------------------------|
---------------------------|--------------------------|
--7--7--7--7--7--9--10--7--|--------------------------|
---------------------------|--8--8--8--8--8--8--8--8--|


                                                         
-----------------------------|--------------------------|
-----------------------------|--------------------------|
-----------------------------|--7--7--7--7--7--7--7--7--|
--10--10--10--7--7--7--7--7--|--------------------------|


                                                       
---------------------------|--------------------------|
---------------------------|--------------------------|
--7--7--7--7--7--9--10--7--|--------------------------|
---------------------------|--8--8--8--8--8--8--8--8--|


                                                       
---------------------------|--------------------------|
---------------------------|--------------------------|
---------------------------|--------------------------|
--7--7--7----10--10--10----|--8--8--8--8--7--7--7--7--|


                                                                           
--------------------------|-------------------------|---------------------||
--------------------------|-------------------------|---------------------||
--------------------------|--7--------10----9----7/-|------17/-------0----||
--8--8--8--8--7--7--7--7--|-----8--7----------------|---------------------||
                   


Добавлено: 23.03.2012
Другие материалы по этой песне:

Страница создана 28.02.2012
http://primanota.ru/at-vance/princess-of-ice-chords.htm
Привет, Гость.
Предлагаем пройти революционный курс по гитаре.
Подарок от PrimaNota.Ru, забирай!