PrimaNota.ru - самый крупный в мире бесплатный архив песенных текстов, аккордов, табулатур и нот


At The Throne Of Judgment - Tomb Of The Thracians - таба, видео

Регистрация Запомнить меня
Войти через:  Facebook Google Twitter Vk Yandex Mail.ru

At The Throne Of Judgment - Tomb Of The Thracians - таба, видео

Печатать
Просмотров: 152
tomb of the thracians solo.

It's in standard C tuning.
and the tab of the whole song, to play it in standard C, just play every note two frets 
(play 4 instead of 6 etc). except on the low C string.

But this should be mostly right. Once again, hit up the myspace with questions and 
 myspace.com/i_am_poop_man


-----------------------------------------------------|
-17-12----12-15-12----12-13-12----12-15-12----12-----|
-------12----------12----------12----------12--------| x2
-----------------------------------------------------|
-----------------------------------------------------|
-----------------------------------------------------|


-------------14----------15----------17--------------|
-17-12----12----12----12----12----12----12----12-----|
-------12----------12----------12----------12--------|
-----------------------------------------------------|
-----------------------------------------------------|
-----------------------------------------------------|


-19-17-15-19-17-15-----------------------------------------|
-------------------19-17-15-19-17-15-----------------------|
-------------------------------------17-16-14--------------|
----------------------------------------------17-16-14-----|
-----------------------------------------------------------|
-----------------------------------------------------------|


Do that whole section twice.
Then the harmonized part..

Guitar 1
-19p17p15p19p17p15------------------------------------------|
------------------------------------------------------------|
-------------------16--14-16-h17-16-14----------------------|
---------------------------------------17--16---------------|
------------------------------------------------------------|
------------------------------------------------------------|


Guitar 2
-15p14p12p15p14p12--------------------------------------------|
--------------------------------------------------------------|
-------------------12--11-12-h14-12-11------------------------|
---------------------------------------14-13------------------|
--------------------------------------------------------------|
--------------------------------------------------------------|


Guitar 1
----------------15-19---17-19-s20-19-17------------------------|
-------------17-------------------------19---------------------|
----------16---------------------------------------------------|
-------17------------------------------------------------------|
-15-19---------------------------------------------------------|
---------------------------------------------------------------|

Guitar 2
----------------12-15---14-15-s17-15-14------------------------|
-------------13-------------------------16---------------------|
----------12---------------------------------------------------|
-------14------------------------------------------------------|
-12-15---------------------------------------------------------|
---------------------------------------------------------------|


Guitar 1
-19p17p15p19p17p15------------------------------------------|
------------------------------------------------------------|
-------------------16--14-16-h17-16-14----------------------|
---------------------------------------17--16---------------|
------------------------------------------------------------|
------------------------------------------------------------|


Guitar 2
-15p14p12p15p14p12--------------------------------------------|
--------------------------------------------------------------|
-------------------12--11-12-h14-12-11------------------------|
---------------------------------------14-13------------------|
--------------------------------------------------------------|
--------------------------------------------------------------|

Guitar 1
----------------15-19---17-19-s20-19-17-22---------------------|
-------------17------------------------------------------------|
----------16---------------------------------------------------|
-------17------------------------------------------------------|
-15-19---------------------------------------------------------|
---------------------------------------------------------------|


Guitar 2
----------------12-15---14-15-s17-15-14-19---------------------|
-------------13------------------------------------------------|
----------12---------------------------------------------------|
-------14------------------------------------------------------|
-12-15---------------------------------------------------------|
---------------------------------------------------------------|
Добавлено: 22.06.2012
Другие материалы по этой песне:

Страница создана 27.05.2012
http://primanota.ru/at-the-throne-of-judgment/tomb-of-the-thracians-chords.htm
Привет, Гость.
Предлагаем пройти революционный курс по гитаре.
Подарок от PrimaNota.Ru, забирай!