PrimaNota.ru - самый крупный в мире бесплатный архив песенных текстов, аккордов, табулатур и нот


At The Throne Of Judgment - Let The Tempest Come - таба, видео

Регистрация Запомнить меня
Войти через:  Facebook Google Twitter Vk Yandex Mail.ru

At The Throne Of Judgment - Let The Tempest Come - таба, видео

Печатать
Просмотров: 113

***its come to my attention that this isnt At The Throne of Judgment.
its Neaera. i got this song from Limewire. it said it was ATTOJ. so dont get all mad 
cause its wrong.***

im pretty sure its in Drop C.
tell me if im wrong.

. palm mute

|------------------------------------------------------------------|
|------------------------------------------------------------------|
|------------------------------------------------------------------|
|------------------------------------------------------------------|
|-7---5---7---8---7---5---7-5-7-8--7---5---7---8---7---5---7-5-7-8-|
|---0---0---0---0---0---0------------0---0---0---0---0---0---------|
    .   .   .   .   .   .            .   .   .   .   .   .

|------------------------------------------------------|
|------------------------------------------------------|
|------------------------------------------------------|
|------------------------------------------------------|
|-7---5---7---8---7---5---7-5-7-8--7---8---10---8---7--|
|---5---5---5---5---5---5------------8---8----8---8----|
    .   .   .   .   .   .            .   .    .   .

well thats all i have for it.
i could figure out more if i wanted to. but i dont feel like it.
please rate and comment!
Добавлено: 02.03.2012
Другие материалы по этой песне:
  • Аккорды и текст

Страница создана 02.03.2012
http://primanota.ru/at-the-throne-of-judgment/let-the-tempest-come-chords.htm
Привет, Гость.
Предлагаем пройти революционный курс по гитаре.
Подарок от PrimaNota.Ru, забирай!