PrimaNota.ru - самый крупный в мире бесплатный архив песенных текстов, аккордов, табулатур и нот


At The Gates - World Of Lies - текст песни, таба, видео

Регистрация Запомнить меня
Войти через:  Facebook Google Twitter Vk Yandex Mail.ru

At The Gates - World Of Lies - текст песни, таба, видео

Печатать
Просмотров: 157
Авторы музыки: Tomas Lindberg, Anders Björler, Jonas Björler, Martin Larsson

			AT THE GATES "WORLD OF LIES"
			ALBUM : "SLAUGHTER OF THE SOUL" 1995


ORIGINALLY TRANSCRIBED BY : ?????
CHANGES BY : ANDERS BJORLER /AT THE GATES July 2000


.  - palm mute                  /  - slide up to
\  - slide down to              ~  - vibrato
h  - hammer on                  b  - bend
p  - pull off                        Suffixes for bend
ph - pinch harmonic                      f - full bend    h - half bend
*  - see comment                         r - release      t - tap bend
X  - percussion mute                     ~ - vibrato bend
@  - slight palm mute           () - ghost note, sustained note
"  - Tremolo Note


Tune Down 2.5 steps to B


Intro           Riff A  Play 4 Times

|---------------|--------------------------------------------------------------|
|---------------|--------------------------------------------------------------|
|---------------|--------------------------------------------------------------|
|---------------|--------------------------------------------------------------|
|---------------|--------------5h7-77--------------5h7-77--------------5h7-77--|
|--7--6-3--2--0-|-5h7-00-9h10-0-------5h7-00-9h10-0-------5h7-00-9h10-0--------|
                      ..      .           ..      .           ..      .

|---------------------|
|---------------------|GTRS
|---------------------|1&2
|---------------------|
|-----8------8----8---|
|-000-6-0000-6-00-6---|
  ...   ....   ..


Riff B  "BOTH GUITARS"  Play 2 Times			           _____    _____
							      end 1.       |2.
|----------------------------------------------------------------|--------|-------|
|----------------------------------------------------------------|--------|-------|
|----------------------------------------------------------------|--------|-------|
|----------------------------------------------------------------|--------|-------|
|----2-1---------2-1--------2-1---------2-1--------5-4---------5-|-4------|-------|
|-00--0-0-2-0-3-0-0-0-2~-00--0-0-2-0-3-0-0-0-2~-33--3-3-5-3-6-3-3|---3-5~-|-6-5-3-|
  ..  . .   .   . . .    ..  . .   .   . . .    ..  . .   .   . .    .



Riff C  Play Once

|------------------------------------------------------------------|
|------------------------------------------------------------------|GTRS
|-----------------------------------------------------12-12-11-12--| 1
|------------------------------------------------------------------|
|----10-9--12-12-9-----10-9----7-6-----10-9--12-12--9-10-10--9-10--|
|-00---0--0--8--8---00---0-0-44-4---00---0-0---8--8----------------|
| ..   .  .  .  .   ..   . . .. .   ..   . .   .  .	           |
|							           |
|------------------------------------------------------------------|
|------------------------------------------------------------------|GTRS
|------------------------------------------------------------------| 2
|------------------------------------------------------------------|
|----10-9--12-12-9-----10-9----7-6-----10-9--12-12--9--5--5--4--2--|
|-00---0--0--8--8---00---0-0-44-4---00---0-0---8--8----3--3--2--0--|
  ..   .  .  .  .   ..   . . .. .   ..   . .   .  .



|---------------------------------------------------------------------|
|---------------------------------------------------------------------|GTR
|---------------------------------------------------------12-12-11-12-| 1
|----9-7--10-10-9~-----9-7-----------------9-7--10-10-9~--------------|
|---------------------------9--9--9h10~-------------------10-10--9-10-|
|-00--0--0--8--8----00--0-0--11-11------00--0--0--8--8----------------|
| ..  .  .  .  .    ..  . .   .  .      ..  .  .  .  .                |
|								      |
|---------------------------------------------------------------------|
|---------------------------------------------------------------------|GTR
|---------------------------------------------------------------------| 2
|---------------------------------------------------------------------|
|---10-9--12-12-9-----10-9--9--9--9h10~---10-9--12-12-9----5--5--4--2-|
|-00--0--0--8--8----00--0-0--11-11------00--0--0--8--8-----3--3--2--0-|
  ..  .  .  .  .    ..  . .   .  .      ..  .  .  .  .     End Riff C



Play Riff B 2 Times
Play Riff C 1 Time



Riff D  Play 1 Time

|-----------------------------------------------|
|-----------------------------------------------|
|-----------------------------------------------|GTRS
|-----------------------------------------------|1&2
|-----------------------------------------------|
|-0-000--000--000--000--000--000--000--00-7-6-3-|
  . ...  ...  ...  ...  ...  ...  ...  ..


Play Riff A 2 Times



Riff E						       GTRS1&2

|-------------------------------------------------------------|
|-------------------------------------------------------------|
|-------------------------------------------------------------|
|-------------------------------------------------------------|
|--2-------5-----8------2-------5----------2-------5-----8----|
|--0-0-5h7---0-7--------0-0-5h7---0-5-3----0-0-5h7---0-7------|
             .                    .                  .



|-------------------------------------------------------------|
|-------------------------------------------------------------|
|-------------------------------------------------------------|
|-------------------------------------------------------------|
|--2-------5------------2-------5-----8----2-------5----------|
|--0-0-5h7---0-5-3------0-0-5h7---0-7------0-0-5h7---0-5-3----|

             .                    .                  .

|------------------------------------|
|------------------------------------|
|------------------------------------|GTRS
|-----------------------3-----3----3-|1&2
|--2-------5-----8------1-----1----1-|
|--0-0-5h7---0-7-----000--0000---00--|
             .       ...  ....   ..



Play Riff B 2 Times

Play Riff C 1 Time



Riff F   Play 1 Time

|--------------------------------------------------------|
|--------------------------------------------------------|GTR
|--------------------------------------------------------| 1+2
|--------------------------------------------------------|
|--------------------------------------------------------|
|-0-000---000---000---000---000---000---000---00---------|
| . ...   ...   ...   ...   ...   ...   ...   ..         |


Heavy varitiation riff play 2 times.

|-----------------------------------------------|
|-----------------------------------------------|
|-----------------------------------------------|GTR
|---------------------------------------7-------| 1
|---------------------------------------5-5-4---|
|0--000---000---000---000---000---00-00---3-2---|
|.  ...   ...   ...   ...   ...   .. ..         |
|						|
|-----------------------------------------------|
|-----------------------------------------------|
|-------12---------------------12---------------|GTR
|-----9----8-----------------9----8---------9---| 2
|---7--------9-10----------7---------9--10------|
|00---------------7-----00----------------------|
|..

|---------------------|
|---------------------|
|---------------------| GTR
|---------------------| 1&II
|---------------------|
|-7--6--3-------------|

           END RIFF D



Play Riff A 2 Times
Play Riff E 2 Times



Solo (Guitar 1 Plays Riff E)       _________ _________
				    1.        2.
|---------------------------------|----------|-----------|
|--12--12-10\8/10bh12/10--8--8-7b-|---5~-----|---12~-----|
|---------------------------------|----------|-----------|GTR
|---------------------------------|----------|-----------| 2
|---------------------------------|----------|-----------|
|---------------------------------|----------|-----------|


|--------------------------------------------------------|
|---5-------5----5~---5--------8-0-7-0-5-0-4-0-5~--------|
|---7b7--4~--7b7-------7b7--4~---------------------------|GTR
|--------------------------------------------------------| 2
|--------------------------------------------------------|
|--------------------------------------------------------|

						END SOLO
Добавлено: 21.07.2012
Другие материалы по этой песне:

Страница создана 24.02.2012
http://primanota.ru/at-the-gates/world-of-lies-chords.htm
Привет, Гость.
Предлагаем пройти революционный курс по гитаре.
Подарок от PrimaNota.Ru, забирай!