PrimaNota.ru - самый крупный в мире бесплатный архив песенных текстов, аккордов, табулатур и нот


At The Gates - The Red In The Sky Is Ours - текст песни, таба, видео

Регистрация Запомнить меня
Войти через:  Facebook Google Twitter Vk Yandex Mail.ru

At The Gates - The Red In The Sky Is Ours - текст песни, таба, видео

Печатать
Просмотров: 176
Band:  At The Gates
Album: The Red In The Sky Is Ours
note : I modified a tab with retarded frets indicated for these same
 notes and just included one guitar part and put it order like it is 
 on the record

|-----------------------------------------------------------------|
|-----------------------------------------------------------------|
|-------------------444-------------------444-------------------4-|
|---3344333---334433------3344333---334433------3344333---334433--|
|-44--------44----------44--------44----------44--------44--------|
|-----------------------------------------------------------------|
 
                         2x   		           2x       
|------------------------||------------------------||
|------------------------||-222--------------------||
|-444--------------------||----112211---111222-----||
|----334433---333444-----||----------333------3322-||
|----------555------5544-||------------------------||
|------------------------||------------------------||


|---------------------------------|
|---------------------------------|
|----------------4----------------|
|---3-4-3----343-----3-4-3----343-|
|-4--------4-------4--------4-----|
|---------------------------------|

                         2x   		
|------------------------||  		
|------------------------||  		 
|-444--------------------||  		 
|----334433---333444-----|| 	 
|----------555------5544-||  		 
|------------------------||  		


|---------------------------------|
|---------------------------------|
|----------------4----------------|
|---3-4-3----343-----3-4-3----343-|
|-4--------4-------4--------4-----|
|---------------------------------| 

               		 2x
|------------------------||  		
|------------------------||  		 
|-444--------------------||  		 
|----334433---333444-----|| 	 
|----------555------5544-||  		 
|------------------------||                      		 

                                                  2x
|-------------------------------------------------||
|-------------------------------------------------||
|-------------------------------------------------||
|---------9-----------------------9------------3--||
|-7--9-10---10~--5-3-5-2--7--9-10---10~--5-3-5-1--||
|----------------3-1-3-0-----------------3-1-3----||

 
|---------------------------------|
|---------------------------------|
|----------------4----------------|
|---3-4-3----343-----3-4-3----343-|
|-4--------4-------4--------4-----|
|---------------------------------|

	                 2x       		
|------------------------||  		
|------------------------||  		 
|-444--------------------||  		 
|----334433---333444-----|| 	 
|----------555------5544-||  		 
|------------------------||  

			2x
|-----------------------||
|-----------------------||
|-----------------------||
|-----------------6"----||
|-5"--------3p2p0-------||
|-----------------------||

							      2x
|-------------------------------------------------------------||
|-------------------------------------------------------------||
|-------------------------------------------------------------||
|-------------------------6"----------------------------6"----||
|-5"----3p2p0-5"----3p2p0-------3p2p0-5"----3p2p0-5"----------||
|-------------------------------------------------------------||

						  
|-------------------------------------------------|
|-------------------------------------------------|
|-------------------------------------------------|
|---------9-----------------------9------------3--|
|-7--9-10---10~--5-3-5-2--7--9-10---10~--5-3-5-1--|
|----------------3-1-3-0-----------------3-1-3----|


|---------------------------------------|
|---------------------------------------|
|---------------------------------------|
|---------9-----------------------9-----|
|-7--9-10---10~--5-3-5-2--7--9-10---10~-|
|----------------3-1-3-0----------------|
  
		              2x		    2x
|  |--------------------------||------------|       ||  |-------|
|  |--------------------------||------------|       ||  |-------|
|  |--------------------------||---/444-----|       ||  |-------|
|  |---------2"-----------3"--||-------33---|gtr 1  ||  |-------|
|  |-5-3-5-2------5-3-5-2-----||---------22-|       ||  |-5-3-5-|
|  |-3-1-3--------3-1-3-------||------------|       ||  |-3-1-3-|

bass and drums only...
                                                     2x
|----------------------------------------------------||
|-----------8-----9----------------8-----9-----------||
|-------------6-5---7-5--------------6-5---7-5-------||
|-7tr8-10"---------------7tr8-10"--------------------||
|----------------------------------------------------||
|----------------------------------------------------||


|---------|
|---------|
|-/444----|
|----33---|
|------22-|
|---------|


|----------------------------------------------------|
|-----------8-----9----------------8-----9-----------|
|-------------6-5---7-5--------------6-5---7-5x------|
|-7tr8-10"---------------7tr8-10"--------------------|
|----------------------------------------------------|
|----------------------------------------------------|


|------------------------------------------------------|
|-------8-----9-------------8-----9--------------------|
|---------6-5---7-5x----------6-5---7-5x---------------|
|-7h8p7---------------7h8p7---------------5-----6------|
|-------------------------------------------4-0---5-0x-|
|------------------------------------------------------|


|-------------------------------------------------------------||
|-------------------------------------------------------------||
|-------------------------------------------------------------||
|-------------------------6"----------------------------6"----||
|-5"----3p2p0-5"----3p2p0-------3p2p0-5"----3p2p0-5"----------||
|-------------------------------------------------------------||

			 2x
|------------------------||
|------------------------||
|------------------------||
|-------------------6"---||
|-5-2-0-5-2-0-5-2-0------||
|------------------------||


|-----------------------------------------------|
|-----------------------------------------------|
|------------------------------------------8"---|
|-------------------6"--------------------------|
|-5-2-0-5-2-0-5-2-0------5-2-0-5-2-0-5-2-0------|
|-----------------------------------------------|


|-------------------------------------------------|
|-------------------------------------------------|
|-------------------------------------------------|
|---------9-----------------------9------------3--|
|-7--9-10---10~--5-3-5-2--7--9-10---10~--5-3-5-1--|
|----------------3-1-3-0-----------------3-1-3----|

			6x
|-----------------------||
|-----------------------||
|-----------------------||
|-----------------6"----||
|-5"--------3p2p0-------||
|-----------------------||


|---------|
|---------|
|-/444----|
|----33---|
|------22-|
|---------|

                           2x
|--------------------------||------------|      
|--------------------------||------------|       
|--------------------------||---/444-----|       
|---------2"-----------3"--||-------33---|
|-5-3-5-2------5-3-5-2-----||---------22-|       
|-3-1-3--------3-1-3-------||------------|       


|-------------------------------------------------------------------|
|-------------------------------------------------------------------|
|-------------------444-------------------444-------------------444-|
|---3344333---334433------3344333---334433------3344333---334433----|
|-44--------44----------44--------44----------44--------44----------|
|-------------------------------------------------------------------|


|--------------------------------------------|
|--------------------------------------------|
|-------------------444-------------------4--|
|---3344333---334433------3344333---334433---|
|-44--------44----------44--------44---------|
|--------------------------------------------|

rain sounds 

violin part on standard tuned guitar (sounds fine in B too) :

|------------------------------------------------|
|8---7---5-------8-1012--7-8-10--5-7-8-5-7---5---|
|------------------------------------------------|
|------------------------------------------------|
|------------------------------------------------|
|------------------------------------------------|


|------------------------------------------------|
|12--12--8---878-10--8---7---5---5---4---5~------|
|------------------------------------------------|
|------------------------------------------------|
|------------------------------------------------|
|------------------------------------------------|


|------------------------------------------------|
|8---7---5-------8-1012--7-8-10--5-7-8-5-7---5---|
|------------------------------------------------|
|------------------------------------------------|
|------------------------------------------------|
|------------------------------------------------|


|------------------------------------------------|
|12--12--8---878-10--898-7---5---5---4---5~------|
|------------------------------------------------|
|------------------------------------------------|
|------------------------------------------------|
|------------------------------------------------|

                                                 2x
|------------------------------------------------||
|8---8---8---12--10--8---7---5---5---4---5~------||
|------------------------------------------------|| 
|------------------------------------------------||  
|------------------------------------------------||
|------------------------------------------------||

                                                 2x
|7---7---7---5-7-8---7---5-----------------------||
|----------8-----------------8---7---5---4~------||
|------------------------------------------------|| 
|------------------------------------------------|| 
|------------------------------------------------||
|------------------------------------------------||

                                                 4x
|7---7-5---------1012108-7---5-------5-----------||
|--------8---8-----------------8-7-8---5-7~------||
|------------------------------------------------|| 
|------------------------------------------------||  
|------------------------------------------------||
|------------------------------------------------||


|12-12-10-14-12-10-9-7-7-6-7-- 
|----------------------------- 
|-----------------------------
|-----------------------------
|-----------------------------
|-----------------------------

						 2x		 
1012109-7---6-----7-5---------------------------|| 
----------------8-----8-7---5---5---4---5~------|| 
------------------------------------------------||
------------------------------------------------||
------------------------------------------------||
------------------------------------------------||
Добавлено: 20.07.2012
Другие материалы по этой песне:

Страница создана 20.07.2012
http://primanota.ru/at-the-gates/the-red-in-the-sky-is-ours-chords.htm
Привет, Гость.
Предлагаем пройти революционный курс по гитаре.
Подарок от PrimaNota.Ru, забирай!